Oops, an error
Loading. Please wait.

I Want To Save You tab

version 3
version 3

Whole song

483 views 1 this week
2 commentsread comments
1 2 3 4 5
3 more votes to show rating
add to favorites
×
Save as Personal and add changes to this tab that will be seen only by you. Learn more ›
×
You can save this tab as Personal to edit and correct it or add notes. All changes will be seen only by you. Learn more »
launch autoscroll
font size
0
reset
how to read this tab
guitar tuner
edit
Autoscroll
slow
fast
+/-
esc
set tempo
stop
Tuning: Drop D

Intro - :10		 :29

e|-----------------------|-------------------------------------------------|
B|-----------------------|-------------------------------------------------|
G|----3-------1-------3--|---3----1----3----1----3-----1-----3----3--------|
D|--1------1-------1-----|-1----1----1----1----1----1-----1----1-----------|
A|-----------------------|-------------------------------------------------|
E|-----------------------|-------------------------------------------------|

     :45			x4 Open on 4th
e|--------------------------------------------------------------|
B|--------------------------------------------------------------|
G|--------------------------------------------------------------|
D|--1-1-1-1-1-1-1-1-----6-6-6-6-6-6-6-6-------------------------|
A|--1-1-1-1-1-1-1-1-----6-6-6-6-6-6-6-6-------------------------|
E|--1-1-1-1-1-1-1-1-----6-6-6-6-6-6-6-6-------------------------|
    x x x x x x x x     x x x x x x x x

Pre-Chorus
    :58                      1:04
e|------------------|----------------------------------------|
B|------------------|----------------------------------------|
G|-5-----5----------|--5-5-5-5-5-5-5-5---3-3-3-3-3-3-3-3-----|
D|-5-----5----------|--5-5-5-5-5-5-5-5---1-1-1-1-1-1-1-1-----|
A|-3-----3--5--6--8-|--3-3-3-3-3-3-3-3-----------------------|
E|------------------|----------------------------------------|

e|--------------------------------------------------------------|
B|--------------------------------------------------------------|
G|--3-3-3-3-3-3-3-3---------------------------------------------|
D|--3-3-3-3-3-3-3-3----3-3-3-3-3-3-3-3--------------------------|
A|--1-1-1-1-1-1-1-1----3-3-3-3-3-3-3-3--------------------------|
E|---------------------3-3-3-3-3-3-3-3--------------------------|

Chorus - Guitar 1- Part 1
    1:11    x2
e|-------------------------------------------------------|
B|-------------------------------------------------------|
G|-3-3-3-3-3-3-3-3--5-5-5-5-5-5-5-5--3-3-3-3--5-5-5-5----|
D|-1-1-1-1-1-1-1-1--5-5-5-5-5-5-5-5--3-3-3-3--5-5-5-5----|
A|------------------3-3-3-3-3-3-3-3--1-1-1-1--3-3-3-3----|
E|-------------------------------------------------------|
		       1:24 Part 2    x1
e|-------------------|--------------------------------------------------|
B|-------------------|--------------------------------------------------|
G|--7-7-7-7--8-8-8-8-|--3-3-3-3-3-3-3-3--5-5-5-5-5-5-5-5----------------|
D|--7-7-7-7--8-8-8-8-|--1-1-1-1-1-1-1-1--5-5-5-5-5-5-5-5----------------|
A|--5-5-5-5--6-6-6-6-|-------------------3-3-3-3-3-3-3-3----------------|
E|-------------------|--------------------------------------------------|
	           1:30  Repeat Part 1   x1
e|--------------|---------------------------------------------------------|
B|--------------|---------------------------------------------------------|
G|--3-3-3-3-3-3-|---------------------------------------------------------|
D|--3-3-3-3-3-3-|---------------------------------------------------------|
A|--1-1-1-1-1-1-|---------------------------------------------------------|
E|--------------|---------------------------------------------------------|

Chorus - Guitar 2 - Part 1
    1:11    x2
e|------------------------------------------------------|
B|------------------------------------------------------|
G|--8-8-8-8-8-8-8-8--5-5-5-5-5-5-5-5--------------------|
D|--8-8-8-8-8-8-8-8--5-5-5-5-5-5-5-5--8-8-8-8-8-8-8-8-8-|
A|--6-6-6-6-6-6-6-6--3-3-3-3-3-3-3-3--8-8-8-8-8-8-8-8-8-|
E|------------------------------------8-8-8-8-8-8-8-8-8-|
	                1:24 Part 2   x1
e|-----------------|---------------------------------------------|
B|-----------------|---------------------------------------------|
G|-----------------|--8-8-8-8-8-8-8-8--5-5-5-5-5-5-5-5-----------|
D|-8-8-8-8-8-8-8-8-|--8-8-8-8-8-8-8-8--5-5-5-5-5-5-5-5-----------|
A|-8-8-8-8-8-8-8-8-|--6-6-6-6-6-6-6-6--3-3-3-3-3-3-3-3-----------|
E|-8-8-8-8-8-8-8-8-|---------------------------------------------|
  1:30 Part 1  x1      Interlude  1:37      x6
e|--------------------|-----------------------------------------|
B|--------------------|-----------------------------------------|
G|--------------------|-----------------------------------------|
D|--------------------|--5-5-5-5-5-5-5-5--6-6-6-6-6-6-6-6-------|
A|--------------------|--5-5-5-5-5-5-5-5--6-6-6-6-6-6-6-6-------|
E|--------------------|--5-5-5-5-5-5-5-5--6-6-6-6-6-6-6-6-------|
                         x x x x x x x x  x x x x x x x x
    1:56					x4
e|--------------------------------------------------------------|
B|--------------------------------------------------------------|
G|--------------------------------------------------------------|
D|--5-5-5-5-5-5-5-5--6-6-6-6-6-6-6-6----------------------------|
A|--5-5-5-5-5-5-5-5--6-6-6-6-6-6-6-6----------------------------|
E|--5-5-5-5-5-5-5-5--6-6-6-6-6-6-6-6----------------------------|

Pre-Chorus     2:09
Chorus         2:22

Interlude 2 - Par 1   2:48
e|---------------------------------------------------------------|
B|---------------------------------------------------------------|
G|--7--8-8-8--7--8-8--7--8-8-8-----------------------------------|
D|--7--8-8-8--7--8-8--7--8-8-8-----------------------------------|
A|--5--6-6-6--5--6-6--5--6-6-6---3--5--6--8----------------------|
E|---------------------------------------------------------------|
Interlude 2 - Part2   2:54   
e|---------------------------------------------------------------|
B|---------------------------------------------------------------|
G|--7--8-8-8--7--8-8--7--8-8-8-----------------------------------|
D|--7--8-8-8--7--8-8--7--8-8-8-----------------------------------|
A|--5--6-6-6--5--6-6--5--6-6-6---3--5--7--9----------------------|
E|---------------------------------------------------------------|

She Won't Sleep, She Won't Sleep... At All!  3:08
e|---------------------------------------------- ----------------|
B|---------------------------------------------------------------|
G|---------------------------------------------------------------|           
D|--8-8-8-8-8-8-8-8--6-6-6-6-6-6-6-6-----------------------------|
A|--8-8-8-8-8-8-8-8--6-6-6-6-6-6-6-6-----------------------------|
E|--8-8-8-8-8-8-8-8--6-6-6-6-6-6-6-6-----------------------------|

Chorus     3:21    x2

End

Took me an hour or two, but I got it down. Hope this helps you
all. I saw one song on mxtabs.net, and I noticed it was kinda 
wrong so I wrote this. The only part I had toruble on was the
intro power chords with palm mute, nothing sounded right.

Sean

| /  slide up
| \  slide down
| h  hammer-on
| p  pull-off
| ~  vibrato
| +  harmonic
| x  Mute note
Suggest correction
Creating personal tab
Creating personal tab
You can edit any tab online and save it as your Personal.

You can edit, replace or remove any tab part or add personal notes – all changes will be seen only by you.

Personal tabs can be accessed anytime from any device, even offline.
Learn more »
Give kudos to tab author, rate the tab!
1 2 3 4 5
comments
print report bad tab
2 comments total.
0 reply
lastlivingboy 10 Feb 07, 2007 05:35 PM

i don't know, but i played this song dropped a half step down

and i played this for the chorus:
eb|------------------------------------------------------|
Bb|------------------------------------------------------|
Gb|--9-9-9-9-9-9-9-9--6-6-6-6-6-6-6-6--4-4-4-4-4-4-4-4-4-|
Db|--9-9-9-9-9-9-9-9--6-6-6-6-6-6-6-6--4-4-4-4-4-4-4-4-4-|
Ab|--7-7-7-7-7-7-7-7--4-4-4-4-4-4-4-4--2-2-2-2-2-2-2-2-2-|
Eb|------------------------------------------------------|

and it sounded fine. and also for the verses (note, this is for guitar two)
eb|--------------------------------------------------------------|
Bb|--------------------------------------------------------------|
Gb|--------------------------------------------------------------|
Db|--2-2-2-2-2-2-2-2-----7-7-7-7-7-7-7-7-------------------------|
Ab|--2-2-2-2-2-2-2-2-----7-7-7-7-7-7-7-7-------------------------|
Eb|--0-0-0-0-0-0-0-0-----5-5-5-5-5-5-5-5-------------------------|
x x x x x x x x x x x x x x x x

it just seemed a heck of a lot easier to play like that, and sounded fine.

and pretty much everything else in the song i figure i moved up a step than if it were in the standard tuning.

0 reply
meneer-xxx 644 Sep 27, 2009 12:50 AM

intro is D#5 G#5

why in drop D and not standard tuning?

;)

guest
You may want to rate the tab now too:
select rating
Wanna post a correction for this tab? Suggest correction