Oops, an error
Loading. Please wait.

Space Tab

version 1
version 1

Whole song

Interactive

10,022 views 6 this week
10 commentsread comments
1 2 3 4 5
x 19
add to favorites
×
Save as Personal and add changes to this tab that will be seen only by you. Learn more ›
×
You can save this tab as Personal to edit and correct it or add notes. All changes will be seen only by you. Learn more »
save as personal
new!
launch autoscroll
font size
0
reset
how to read this tab
guitar tuner
Autoscroll
slow
fast
+/-
esc
set tempo
stop
Author
                            Space- By Something Corporate

Hey! This songs off Something Corporate's newest cd, North. There's no tabs
here for it so i figured i try it. It's my very first tab, but i think it sounds
right, Leave corrections if somethings wrong. SoCo Rocks!


Tabbed by: slyguyty
Email: cwatudid2meagain@yahoo.com
Tuning:Standard

Verse 1 Palm Muted!

e|--------------------------------------------------------------------------
B|--------------------------------------------------------------------------
G|---4-4-4-4-4-4-4-4-4-4-4-4-4-4-4-4--7-7-7-7-7-7-7-7-----------------------
D|---4-4-4-4-4-4-4-4-4-4-4-4-4-4-4-4--7-7-7-7-7-7-7-7--7-7-7-7-7-7-7-7------
A|---2-2-2-2-2-2-2-2-2-2-2-2-2-2-2-2--5-5-5-5-5-5-5-5--7-7-7-7-7-7-7-7------
E|-----------------------------------------------------5-5-5-5-5-5-5-5------

Chorus

e|--------------------------------------------------------------------------
B|--------------------------------------------------------------------------
G|------------------4-4-4-4-4-4-4-4-----------------------------------------
D|---7-7-7-7-7-7-7--4-4-4-4-4-4-4-4--5-5-5-5-5-5-5-5--2-2-2-2-2-2-2-2-------
A|---7-7-7-7-7-7-7--2-2-2-2-2-2-2-2--3-3-3-3-3-3-3-3--2-2-2-2-2-2-2-2-------
E|---5-5-5-5-5-5-5-------------------3-3-3-3-3-3-3-3--0-0-0-0-0-0-0-0-------

e|--------------------------------------------------------------------------
B|--------------------------------------------------------------------------
G|-------------------------------------7-7-7-7-7-7-7-7----------------------
D|---5-5-5-5-5-5-5-5--2-2-2-2-2-2-2-2--7-7-7-7-7-7-7-7--7-7-7-7-7-7-7-7-----
A|---5-5-5-5-5-5-5-5--2-2-2-2-2-2-2-2--5-5-5-5-5-5-5-5--7-7-7-7-7-7-7-7-----
E|---3-3-3-3-3-3-3-3--0-0-0-0-0-0-0-0-------------------5-5-5-5-5-5-5-5-----

Verse 2- Repeat Verse 1 but leave open on last time through

Chorus-2X

Bridge-2X
e|--------------------------------------------------------------------------
B|--------------------------------------------------------------------------
G|----------------------2-2-2-2-2-2-2-2-----------------2-2-2-2-2-2-2-2-2---
D|---2-2-0-2-2-0-2-2-0--2-2-2-2-2-2-2-2--3-3-3-3-3-3-3--2-2-2-2-2-2-2-2-2---
A|---2-2---2-2---2-2----0-0-0-0-0-0-0-0--3-3-3-3-3-3-3--0-0-0-0-0-0-0-0-0---
E|---0-0---0-0---0-0---------------------1-1-1-1-1-1-1----------------------

Chorus-2X


Alright i'm still not sure about the bridge i thought it sounded pretty good,
thanks to the annoynomous tabber off mxtabs for help with the bridge.
Suggest correction
comments
print report bad tab
10 comments total. Showing first comments.
0 reply
acousticbreak 30 Jan 31, 2004 07:00 PM

Nice tab!

0 reply
Audioboxer829 40 Mar 27, 2004 07:00 PM

Bridge-3x On third time hit the last E only once and slide from like the 12th frets down.
e|----------------------------------------------------|
B|----------------------------------------------------|
G|----------------------------------------------------|
D|2-2-0-2-2-0-2-0-x2--2-2-2-2-2-2-2-2-3-3-3-3-2-2-2-2-|
A|2-2---2-2---2-------2-2-2-2-2-2-2-2-3-3-3-3-2-2-2-2-|
E|0-0---0-0---0-------0-0-0-0-0-0-0-0-1-1-1-1-0-0-0-0-|

0 reply
DarkSoLoist 10 Apr 23, 2004 08:00 PM

for the birdge it's this...
e|---------------------------------------
B|-----------------------------------------
G|-------------------------3-x4-------------
D|2-2-0-2-2-0-2-0-x2--2-x8-3----2-x4------------
A|2-2---2-2---2-------2----1----2--------
E|0-0---0-0---0-------0---------0-----------

guest
You may want to rate the tab now too:
select rating
Wanna post a correction for this tab? Suggest correction