Oops, an error
Loading. Please wait.

Monsters tab

version 3
version 3

Whole song

  • Tablature for riffs in intro verse and bridge, chords for rest.
43 views 6 this week
no commentswrite comment
1 2 3 4 5
1 last vote to show rating
add to favorites
×
Save as Personal and add changes to this tab that will be seen only by you. Learn more ›
×
You can save this tab as Personal to edit and correct it or add notes. All changes will be seen only by you. Learn more »
launch autoscroll
font size
0
reset
how to read this tab
guitar tuner
edit
Autoscroll
slow
fast
+/-
esc
set tempo
stop
About this tab version
Tablature for riffs in intro verse and bridge, chords for rest. Was this info helpful? Yes No
INTRO:
                                               I was...
    Db5     C5      Db5     C5      Db5
E|----------------|----------------|------------------|
B|----------------|----------------|------------------|
G|----------------|----------------|------------------|
D|--6-6-6-6\5-5-5-|5/6-6-6-6\5-5-5-|5/6-6-6-----------|
A|--4-4-4-4\3-3-3-|3/4-4-4-4\3-3-3-|3/4-4-4-----------|
E|--4-4-4-4\3-3-3-|3/4-4-4-4\3-3-3-|3/4-4-4-----------|

VERSE:
hanging up side down from the overpass, waiting to dis-
    Db5     F5       Eb5          /Bb  /C     
E|-----------------------|-----------------------|
B|-----------------------|-----------------------|
G|-----------------------|-----------------------|
D|--6--6--6/10-10-10-\8--|8--8--8--8--8--8--8----|
A|--4--4--4/8--8--8--\6--|6--6--6--6--6--6--6----|
E|--4--4--4/8--8--8--\6--|6--6--6--7--7--8--8----|

-cover something about the world.      I couldn't...(etc)
    Db5     Eb5       F5          /Db    /D    
E|-----------------------|-----------------------|
B|-----------------------|-----------------------|
G|-----------------------|-----------------------|
D|--6--6--6/8--8--8--\10-|10-10-10-10-10-10-10---|
A|--4--4--4/6--6--6--\8--|8--8--8--8--8--8--8----|
E|--4--4--4/6--6--6--\8--|8--8--8--9--9--10-10---|



      Db5            F5       Eb5          /Bb  /C
I was hanging upside down from the overpass
               Db5      Eb5            F5          /Db    /D    
Waiting to discover something about the world
I couldn't get with the program and I couldn't listen to them
It was like trying to think in reverse
And I don't want to slide into apathy 
And I don't want to die in captivity
But these monsters follow me around
Hunting me down, trying to wipe me out

Bbm   Ab   Gb
Wipe me out  (x3)


      Db5            F5       Eb5          /Bb  /C
I was hiding away under water
               Db5      Eb5            F5          /Db    /D    
Waiting for distance and buying some time
Trying to be two hundred thousand years younger
So I could excuse myself from humankind
'Cause I don't want to be a container
Or a bastard with a ten page disclaimer
But these monsters spin me around
Get me down, just try and shut me out

Bbm   Ab   Gb
Shut me out (x3)

BRIDGE:
  Gb                          Db          Ab 
E|---------------------------|----------------------|
B|----11-11-11---9--9--7--7--|6---6-6---6-4---------|
G|----11-11-11--10-10--8--8--|6---6-6---6-5---------|
D|---------------------------|6---6-6---6-6---------|
A|---------------------------|4---4-6---4-6---------|
E|---------------------------|----------------------|

Hold it in your head
Hold it in your head
Hold it in your head
Gb                                       
Believe in me, believe in me, believe...

Bbm   Ab   Gb
(Shut me out) I was hiding away under water
(Shut me out) Waiting for distance, waiting for time
(Shut me out) And I don't want to slide into apathy
(Shut me out) And I don't want to live in captivity


***********************************
| /   Slide up
| \   Slide down
***********************************

            
            
Suggest correction
Creating personal tab
Creating personal tab
You can edit any tab online and save it as your Personal.

You can edit, replace or remove any tab part or add personal notes – all changes will be seen only by you.

Personal tabs can be accessed anytime from any device, even offline.
Learn more »
Give kudos to tab author, rate the tab!
1 2 3 4 5
comments
print report bad tab
guest
You may want to rate the tab now too:
select rating
Wanna post a correction for this tab? Suggest correction