Oops, an error
Loading. Please wait.

Apple Of The Eye Lay Me Down Bass Tab

version 1
version 1

Whole song

Interactive

274 views 1 this week
1 commentread comment
1 2 3 4 5
please rate
add to favorites
launch autoscroll
font size
0
reset
guitar tuner
Tab Pro tools
  • play this tab
  • loop segment
  • change instrument
  • show fretboard
  • metronome
×
Best way to learn
"Apple Of The Eye Lay Me Down"
Autoscroll
slow
fast
+/-
esc
set tempo
stop
Contributor
Difficulty
Tuning
novice
D A D G B E
Band:		SOMETHING WITH NUMBERS
Song:		APPLE OF THE EYE (LAY ME DOWN)
Album/EP:		PERFECT DISTRACTION (OUT OCT 7 2006) 
Label:		BELOW PAR/VIRGIN RECORDS
Bassist:		SCOTT CHAPMAN
Tuning:		Standard (GDAE) or Drop D (GDAD)

Verse x6 (0.17)

G|-----------------------------------------------------------|
D|-----------------------------------------------------------|
A|-------------------55-5555-55-5555-------------------------|
E|--44-4444-44-4444------------------------------------------|

Pre Chorus x1

G|--------------------|
D|--------------------|
A|--------------------|
E|--9/----------------|

Chorus x4

G|----------------------------------|
D|----------------------------------|
A|-------------33333333--55555555---|
E|--44-4444-44----------------------|

Post Chorus x1

G|--------------------|
D|--------------------|
A|--------------------|
E|--9/----------------|

Verse x4

G|-----------------------------------------------------------|
D|-----------------------------------------------------------|
A|-------------------55-5555-55-5555-------------------------|
E|--44-4444-44-4444------------------------------------------|

Pre Chorus x1

G|--------------------|
D|--------------------|
A|--------------------|
E|--9/----------------|

Chorus x4

G|----------------------------------|
D|----------------------------------|
A|-------------33333333--55555555---|
E|--44-4444-44----------------------|



Breakdown Part 1 x 2

G|----------------------------------|
D|----------------------------------|
A|-33333333--11111111--44444444-----|
E|----------------------------------|


Breakdown Part 2 x1

G|-----------------------------------------|
D|-----------------------------------------|
A|-33333333--11111111--44444444--66666666--|
E|-----------------------------------------|

Chorus x5

G|----------------------------------|
D|----------------------------------|
A|-------------33333333--55555555---|
E|--44-4444-44----------------------|

Outro x1

G|---------------|
D|---------------|
A|------3~--5~---|
E|--4~-----------|

www.somethingwithnumbers.net

or

www.belowpar.org (if it doesnt work email jai@belowpar.org)
comments
We did not receive enough feedback on this tab! Please rate:
print report bad tab
1 2 3 4 5
1 comment total.
0 reply
*Jordie1* wrote on December 31 2006, 11:37 pm

I don't know...but great try... parts work...

I want to post or [tab]
guest
You may want to rate the tab now too:
select rating
Please do not post tabs as comments. Select "correction" instead!