Oops, an error
Loading. Please wait.

Apple Of The Eye Lay Me Down Tab

version 1
version 1

Whole song

Interactive

681 views 1 this week
2 commentsread comments
1 2 3 4 5
please rate
add to favorites
launch autoscroll
font size
0
reset
how to read this tab
guitar tuner
Tab Pro tools
  • play this tab
  • loop segment
  • change instrument
  • show fretboard
  • metronome
Autoscroll
slow
fast
+/-
esc
set tempo
stop
Contributor
Difficulty
intermediate
@@@@@@@@@@@@@@@@@@@@@@@@@@@@@@@@@@@@@@@@@@@@@@@@@@@@@@@@@@@@@@@@@@@@@@@@@@@@
                      apple of the eye - something with numbas
@@@@@@@@@@@@@@@@@@@@@@@@@@@@@@@@@@@@@@@@@@@@@@@@@@@@@@@@@@@@@@@@@@@@@@@@@@@@

i dont have guitar pro so i couldnt get the tab for this song so i went 
extreme and did it myself lol... hope u like it

intro after drums - Repeat durin verses
|-----------------------------------------------------------|
|-----------------------------------------------------------|
|-555555544444-22222222-000-222-----------------------------|
|-333333333333-22222222-000-222-----------------------------|
|-----------------------------------------------------------|
|-----------------------------------------------------------|

intro guitar 2 - repeat as nessasery
|-----------------------------------------------------------|
|--5-5---5-5----5-5---5-5-----------------------------------|
|-5------------5-----------0h2------------------------------|
|-----5-5---2------5-5---2----0h2---------------------------|
|-------------------------------0---------------------------|
|-----------------------------------------------------------|

Chorus - guitar 1 - reapet as nessesary| at end
|--------------------------------------|--------------------|
|--------------------------------------|--------------------|
|-----555----555-4-5-4-2---------------|-22222--------------|
|--------------------------------------|-22222--------------|
|-777----777---------------------------|-00000--------------|
|-555----555---------------------------|--------------------|

Chorus - guitar 2 - repeat
|-----------------------------------------------------------|
|-----------------------------------------------------------|
|-----------------------------------------------------------|
|-----------------------------------------------------------|
|-77777777777777-999999999999-7777777777-55-3333333333333333|
|-55555555555555-777777777777-5555555555-33-1111111111111111|

Soz guys but i havent figured out the other bit coz umm
i had to turn off the computer coz i had to go to bed
so i have to submit this much.
if u want me to tab the rest post a comment.
comments
We did not receive enough feedback on this tab! Please rate:
print report bad tab
1 2 3 4 5
2 comments total.
0 reply
dane619 wrote on June 14 2007, 07:49 pm

who wants to post a comment to me i no i do

0 reply
theytukourjerbs wrote on March 26 2009, 09:41 pm

sorry dude the other ones better. No offense!:-(

I want to post or [tab]
guest
You may want to rate the tab now too:
select rating
Please do not post tabs as comments. Select "correction" instead!