Oops, an error
Loading. Please wait.

Apple Of The Eye Lay Me Down Bass Tab

version 2
version 2

Whole song

Interactive

524 views 1 this week
1 commentread comment
1 2 3 4 5
1 last vote to show rating
add to favorites
launch autoscroll
font size
0
reset
guitar tuner
Autoscroll
slow
fast
+/-
esc
set tempo
stop
Help us to improve Ultimate-Guitar.com Take our survey!
×
Difficulty
novice
The tab that was on here, seriously listen to the song and play along, it was so wrong, 
do not know how people played that.
This may not be the right tab, but it it so much better then the one thats here!! And 
one actually fits with the song. Whoever tabbed it was a FOOL! now for the tab :P
(and either standard tuning or drop D, are you dumb? you cant do both!! completely 
THIS tab is in standard GDAE)

Verse x6 (0.17)

G|-----------------------------------------------------------|
D|-----------------------------------------------------------|
A|-------------------0-0-0000-00-0000------------------------|
E|--1-1-1111-11-1111-----------------------------------------|


Chorus x4

G|------------------------------------------|
D|------------------------------------------|
A|----------------------00000000-00000000---|
E|--11111111--33333333----------------------|


Verse x4

G|-----------------------------------------------------------|
D|-----------------------------------------------------------|
A|-------------------0-0-0000-00-0000------------------------|
E|--1-1-1111-11-1111-----------------------------------------|

Chorus x4

G|------------------------------------------|
D|------------------------------------------|
A|----------------------00000000-00000000---|
E|--11111111--33333333----------------------|


Bridge
                                       (x3)
G|------------------------------------------|
D|------------------------------------------|
A|-33333333--55555555--00000000--00000000---|
E|------------------------------------------|

                                       (x1)
G|------------------------------------------|
D|------------------------------------------|
A|-33333333--55555555--00000000--0~---------|
E|------------------------------------------|
(Here on the last one i just hold the 0, but i think theres a higher note, but im not 
what it is... you decide what to do)


Chorus x5

G|------------------------------------------|
D|------------------------------------------|
A|----------------------00000000-00000000---|
E|--11111111--33333333----------------------|


Outro x1

G|----------------|
D|----------------|
A|----------0~----|
E|--1~--3~--------|

Have fun!
Suggest correction
Give kudos to tab author, rate the tab!
1 2 3 4 5
comments
print report bad tab
1 comment total.
0 reply
bassersam 276 Oct 10, 2007 06:49 AM

still dont think its right but is on the right track

guest
You may want to rate the tab now too:
select rating
Wanna post a correction for this tab? Suggest correction