Oops, an error
Loading. Please wait.

Desde La Oscuridad Tab

5 views 1 this week
no commentswrite comment
1 2 3 4 5
3 more votes to show rating
add to favorites
launch autoscroll
font size
0
reset
how to read this tab
guitar tuner
×
Best way to learn
"Desde La Oscuridad"
Autoscroll
slow
fast
+/-
esc
set tempo
stop
SOLO:
      C#m      G#m    A     E B     C#m    G#m      F#m
E |-------------------------------|--------------7---------
B |-------------------------------|--------7---9----10-9-7-
G |--6-8-9-8-6-----6--------------|--6-8-9-----------------
D |------------9-6----------------|------------------------
A |------------------9-7-9-9-7/9--|------------------------
E |-------------------------------|------------------------

                  B
E |------------------------|
B |---7-------------9-X-9--|
G |-9---9-6-9---7-9--------|
D |------------------------|
A |------------------------|
E |------------------------|
Suggest correction
Give kudos to tab author, rate the tab!
1 2 3 4 5
comments
print report bad tab
guest
You may want to rate the tab now too:
select rating
Wanna post a correction for this tab? Suggest correction