Oops, an error
Loading. Please wait.

Miguel Tab

4 views 1 this week
no commentswrite comment
1 2 3 4 5
3 more votes to show rating
add to favorites
launch autoscroll
font size
0
reset
how to read this tab
guitar tuner
Autoscroll
slow
fast
+/-
esc
set tempo
stop
Help us to improve Ultimate-Guitar.com Take our survey!
×
Intro
    Bm             F#m
e---------------------------------2-------|
B--------3---2--------------2-------------|
G----------4--------------4---4-----------|
D----4-----------------4------------------|
A-2---------------2-2---------------------|
E-----------------------------------------|

al intetar lograr...
e--------------------------------------3---------|
B--------3-----2----2-------------3------3---0---|
G----------4----------2-------------0------0-----|
D----4-----------4-------------0-----------------|
A-2------------4---------------------------------|
E---------------------------3--------------------|

No tuvo nunca una impresion del...
e--------------------------------------2------------|
B--------3-----2-------2-----------3---------2------|
G----------4-------------2-----------0-----2---2----|
D----4------------4------------0-------0------------|
A-2------------4----------------------------0-------|
E---------------------------3-----------------------|

Y aun asi cuando le preguntaban...
e---------------------------------------3-------|
B--------3-----2-------2-----------3----3-------|
G----------4-------------2-----------0--0-------|
D----4------------4-------------0-------0-------|
A-2------------4------------------------2-------|
E----------------------------3----------3-------|

Como esta miguel,me han...
e--------------------------------------2-------------|
B--------3-----2------2-----------3---------2--------|
G----------4------------2-----------0-----2---2------|
D----4------------4------------0-------0-------------|
A-2------------4----------------------------0--------|
E---------------------------3------------------------|

ella se sonrei y contestaba...
e---------------------------------------3----------|
B--------3-----2-------2-----------3----3----------|
G----------4-------------2-----------0--0----------|
D----4------------4-------------0-------0----------|
A-2------------4------------------------2----------|
E----------------------------3----------3----------|

a miguel ahi q sacarlo de ese mundo...
e-------------------------------------3----------|
B--------3-----2----2------------3------3---0----|
G----------4----------2------------0------0------|
D----4-----------4------------0------------------|
A-2------------4---------------------------------|
E--------------------------3---------------------|

Por que no logra comprender...
e--------------------------------------2------------|
B--------3-----2-------2-----------3---------2------|
G----------4-------------2-----------0-----2---2----|
D----4------------4------------0-------0------------|
A-2------------4----------------------------0-------|
E---------------------------3-----------------------|

que asi como las flores nacen tambien...
e-------------------------------------3-----------|
B--------3-----2----2------------3------3---0-----|
G----------4----------2------------0------0-------|
D----4-----------4------------0-------------------|
A-2------------4----------------------------------|
E--------------------------3----------------------|
y lo que quita el tiempo...
e---------------------------------------------------------------------------------------|
B--------3-----2----2-----------3---3---3---3----3---3---3---3---3---3---3---2-------2--|
G----------4----------2-----------0---0---0--------0---0---0-------2---2---2-------2---2|
D----4-----------4-----------0----------------0----------------2-----------------2------|
A-2------------4---------------------------------------------0---------------2----------|
E-------------------------3-----------------3-------------------------------------------|

Coro:Y se pregunta el...
e--2-----2------0----0------------3---------------------|
B------3---3--------2--2----3---3---3----3------2-------|
G----2-------2----2------2----0-------0----2---2--2-----|
D--0------------2------------------------2----2---------|
A-------------------------------------------------------|
E---------------------------3---------------------------|

Cuanto tiempo durara...
e--2-----2------0----0------------3---------------------|
B------3---3--------2--2----3---3---3----3------2-------|
G----2-------2----2------2----0-------0----2---2--2-----|
D--0------------2------------------------2----2---------|
--------------------------------------------------------|
E---------------------------3---------------------------|
no sabe espera poder ver...
e--2-----2------0----0------------3---------------------|
B------3---3--------2--2----3---3---3----3------2-------|
G----2-------2----2------2----0-------0----2---2--2-----|
D--0------------2------------------------2----2---------|
A-------------------------------------------------------|
E---------------------------3---------------------------|

ese nuevo amanezer.
e--2-----2------0----0------3----------|
B------3---3--------2--2----3----------|
G----2-------2----2------2--0----------|
D--0------------2-----------0----------|
A---------------------------2----------|
E---------------------------3----------|

2 parrafo
Su marca los latidos...
e--------------------------------------3-----------|
B--------3-----2----2-------------3------3---0-----|
G----------4----------2-------------0------0-------|
D----4-----------2-------------0-------------------|
A-2------------0-----------------------------------|
E---------------------------3----------------------|
---
q el ya a decidido guardar
e-------------------------------------2------------|
B--------3-----2-----2----------3---------2--------|
G----------4-----------2----------0-----2---2------|
D----4-----------2------------0-------0------------|
A-2------------2--------------------------0--------|
E--------------------------3-----------------------|

Miguel a comprado una sospecha...
e--------------------------------------3-----------|
B--------3-----2----2-------------3------3---0-----|
G----------4----------2-------------0------0-------|
D----4-----------2-------------0-------------------|
A-2------------0-----------------------------------|
E---------------------------3----------------------|

Pero es mejor no preguntar...
e---------------------------------------------------------------------------------------|
B--------3-----2----2-----------3---3---3---3----3---3---3---3---3---3---3---2-------2--|
G----------4----------2-----------0---0---0--------0---0---0-------2---2---2-------2---2|
D----4-----------4-----------0----------------0----------------2-----------------2------|
A-2------------4---------------------------------------------0---------------2----------|
E-------------------------3-----------------3-------------------------------------------|

Coro: es igual al primero.
post-coro:el liteo es igual solo q cambia la letra es todo.

solo:
e------------------------------------------|----------------|
B-3-----3----2-----2----3-----3----3---2---|----------------|
G-----4---0------2---0------0---0----2---2-|-repetir 1------|
D---4----------2----------0--------2---2---|---vez mas-y----|
A-2----------0-----------------------------|----sigue esto--|
E-----------------------3------------------|----------------|

e------------------------------------3-3-2-0------------------------------------------------|
B--------3-------2-----2----3----------------3--------3------2-----2----3------3----3------3|
G------4---4-0-------2---0-------0------------------4---4-0------2---0-------0---0-------0--|
D----4-------------2-----------0------------------4------------2-----------0-----------0----|
A--2-------------0------------------------------2------------0------------------------------|
E---------------------------3-------------------------------------------3-----------3-------|

----------------------------------3-3-2-0----|
------3-------2-----2----3----------------3--|
----4---4-0-------2---0-------0--------------|
--4-------------2-----------0----------------|
2-------------0------------------------------|
-------------------------3-------------------|

--------------------------------------------------------------------------------------|
------3------2-----2----3----3---3---3---3----3---3---3---3----3---3---3---2-------2--|
----4---4-0------2---0---------0---0---0--------0---0---0--------2---2---2-------2---2|
--4------------2----------0-----------------0----------------2-------------2---2------|
2------------0--------------------------------------------0---------------------------|
------------------------3----------------3--------------------------------------------|
Coro: Igual
y despues: mañana, mañana... q el liteo es igual al del coro

para terminar se toca la 1°parte del solo y despues se toca esto:
e----------------------------------------------|
B--3---3----2---2-----3---3----3---3----2------|
G----4---4----2---2-----0---0----2---2---------|
D---------------------------------------2------|
A--2--------0------------------0---------------|
E---------------------3------------------------|

Final:ES EL MISMO LITEO Q EL CORO CON TERMINACION EN RASGEO DE SOL..
 
BUENO ESPERO Q LES AYA GUSTADO ESTA CANCION SE LA DEDICO ESPECIALMENTE
PARA ME...TACTMCG...SI ENCUENTRAN ERRORES POR FAVOR MANDAMELOS A MI EMAIL PORFAVOR
BUENO BIEN CUIDENSE...
Suggest correction
Give kudos to tab author, rate the tab!
1 2 3 4 5
comments
print report bad tab
guest
You may want to rate the tab now too:
select rating
Wanna post a correction for this tab? Suggest correction