Oops, an error
Loading. Please wait.

End Up Like This tab

30 views 1 this week
no commentswrite comment
1 2 3 4 5
1 last vote to show rating
add to favorites
×
Save as Personal and add changes to this tab that will be seen only by you. Learn more ›
×
You can save this tab as Personal to edit and correct it or add notes. All changes will be seen only by you. Learn more »
launch autoscroll
font size
0
reset
how to read this tab
guitar tuner
edit
Autoscroll
slow
fast
+/-
esc
set tempo
stop
Author
-----------------------------------------------------------------------------
                  End Up Like This - Son Of Dork
-----------------------------------------------------------------------------
Tabbed By: Fabio BlenderBR

 - Give your rating and help others users to find the best versions of the songs -

Intro: Asus2 E B E

Intro Riff:
e|--------------------------------|
B|------5-----5-----5-------------|
G|----8-----8-----8-----8---6-----|
D|--6-----6-----6-----6---6-------|
A|--------------------------------|
E|--------------------------------|


Verse: 
Asus2                   E
Just called to let you know
                B
I've got to let go
                E
Couldn't stand back and watch this
A                   E
You went behind my back
               B
Threw us off track
                 E
And then that's when I lost it


Pre Chorus:
 G#                A
Can't believe I'd kid myself
 G#                  A            
That you were ever worth this


Chorus:
C#                   E                A
Read between these lines, a hundred times
      C#                        B
And realise, there'll be no compromises
C#            E                  A
Not before I die, Or in another life
C#                 B
How did we end up like this?

Chorus Riff:
e|------------------------------|
B|------5-----5-----5-----------|
G|----8-----8-----8-----8--6----|
D|--6-----6-----6-----6---------|  Play during all the chorus
A|------------------------------|
E|------------------------------|


Verse 2:
Asus2                   E
When you made out with her
                  B
It's just like a blur
         E
But it still plays in my head
Asus2              E
And who will you become
            B
Now that we're done?
      E
Back then I couldn't stand you


Pre Chorus:
 G#                A
Can't believe I'd kid myself
 G#                  A            
That you were ever worth this


Chorus:
C#                   E                A
Read between these lines, a hundred times
      C#                        B
And realise, there'll be no compromises
C#            E                  A
Not before I die, Or in another life
C#                 B            A
How did we end up like this?
B                    E           A      C#      B     A
  How did we end up like this?

Chorus Riff:
e|------------------------------|
B|------5-----5-----5-----------|
G|----8-----8-----8-----8--6----|
D|--6-----6-----6-----6---------|  Play during all the chorus
A|------------------------------|
E|------------------------------|

Solo:
e|------------------------------------------10-12h13p12~---12-13h15p13~--13h15h16h17b---------|
B|----------------------12b--10h9~-9h10p9-----------------------------------------------------|
G|-6-8h9p8--8-9h11p9--------------------------------------------------------------------------|
D|--------------------------------------------------------------------------------------------|  
A|--------------------------------------------------------------------------------------------|
E|--------------------------------------------------------------------------------------------|


Bridge:
How'd we go so wrong, go so wrong?
How'd we go so wrong?

Chorus:
C#                   E                A
Read between these lines, a hundred times
      C#                        B
And realise, there'll be no compromises
C#            E                  A
Not before I die, Or in another life
C#                 B            
How did we end up like this?
C#                E             A
C#                 B
How did we end up like this?
C#                E             A
C#                 B             E
How did we end up like this?

Chorus Riff:
e|------------------------------|
B|------5-----5-----5-----------|
G|----8-----8-----8-----8--6----|
D|--6-----6-----6-----6---------|  Play during all the chorus
A|------------------------------|
E|------------------------------|

Solo:
e|------------------------------------------10-12h13p12~---12-13h15p13~--13h15h16h17b---------|
B|----------------------12b--10h9~-9h10p9-----------------------------------------------------|
G|-6-8h9p8--8-9h11p9-11-----------------------------------------------------------------------|
D|--------------------------------------------------------------------------------------------|  
A|--------------------------------------------------------------------------------------------|
E|--------------------------------------------------------------------------------------------|


Final:
G|---------------------------|
D|---------------------------|
A|-4--4h6-----6h7------------|   (Bass)
E|---------------------------|

            
            
Suggest correction
Creating personal tab
Creating personal tab
You can edit any tab online and save it as your Personal.

You can edit, replace or remove any tab part or add personal notes – all changes will be seen only by you.

Personal tabs can be accessed anytime from any device, even offline.
Learn more »
Give kudos to tab author, rate the tab!
1 2 3 4 5
comments
print report bad tab
guest
You may want to rate the tab now too:
select rating
Wanna post a correction for this tab? Suggest correction