Oops, an error
Loading. Please wait.

Slacker intro tab

version 1
version 1

Intro

Whole song

Interactive

1,716 views 1 this week
3 commentsread comments
1 2 3 4 5
x 5
add to favorites
×
Save as Personal and add changes to this tab that will be seen only by you. Learn more ›
×
You can save this tab as Personal to edit and correct it or add notes. All changes will be seen only by you. Learn more »
launch autoscroll
font size
0
reset
how to read this tab
guitar tuner
edit
Autoscroll
slow
fast
+/-
esc
set tempo
stop
Author
Difficulty
e---------5---2------------------2--------------------------------------|
B-----3----------5--3--5--3--5------5--3--------------------------------|
G--2--------------------------------------------------------------------|x10
D-----------------------------------------------------------------------|
A-----------------------------------------------------------------------|
E-----------------------------------------------------------------------|

tabbed by steve R

            
            
Suggest correction
Creating personal tab
Creating personal tab
You can edit any tab online and save it as your Personal.

You can edit, replace or remove any tab part or add personal notes – all changes will be seen only by you.

Personal tabs can be accessed anytime from any device, even offline.
Learn more »
comments
print report bad tab
3 comments total.
0 reply
miss182 10 Dec 16, 2005 09:11 AM

awesome tab, kl song

0 reply
scrat-182 99 Jan 03, 2006 02:35 AM

can someone please find out the whole song!!! good intro steve!! keep it up!

0 reply
J0k3r 240 Jul 24, 2006 01:04 AM

try playing it like this, i find you can get the speed up to what they play it, i know i have difficulty playing that bit that fast

e-----5---2--0-0-0--2-0--------------------------|
B---3---------3-3-------3------------------------|
G--2---------------------------------------------|x10
D------------------------------------------------|
A------------------------------------------------|
E------------------------------------------------|

its exactly the same, just playing the open instead of the 5

guest
You may want to rate the tab now too:
select rating
Wanna post a correction for this tab? Suggest correction