Oops, an error
Loading. Please wait.

Slacker tab

version 1
version 1

Whole song

Interactive

1,791 views 3 this week
2 commentsread comments
1 2 3 4 5
2 more votes to show rating
add to favorites
×
Save as Personal and add changes to this tab that will be seen only by you. Learn more ›
×
You can save this tab as Personal to edit and correct it or add notes. All changes will be seen only by you. Learn more »
launch autoscroll
font size
0
reset
how to read this tab
guitar tuner
edit
Autoscroll
slow
fast
+/-
esc
set tempo
stop
Author
Difficulty
i dont think this is 100% correct im not sure about the chorus and one part in the 
but the rest im quite happy with. here it is.......

h = hammer on
/ or  = slide
* = palm mute
x = string mute

INTRO:

guitar 1:

e---------5---2------------------2--------------------------------------|
b-----3----------5--3--5--3--5------5--3--------------------------------|
g--2--------------------------------------------------------------------|
d-----------------------------------------------------------------------|x?
a-----------------------------------------------------------------------|
e-----------------------------------------------------------------------|

guitar 2:

comes in after guitar 1 has played a few times.

e-------------|
b-------------|
g-------------|
d-------------|
a--88888888---|
e--66666666---|
   ********
guitar 1+2:

e--------------------|
b--------------------|
g--8-/-10--8--7------|
d--x-/-x---x--x------|
a--6-/-8---6--5------|
e--------------------|

e----------------------------------------------------------------------|
b----------------------------------------------------------------------|
g--888-777-555-333-----333---888/101010/121212/131313/151515101010-----|
d--xxx-xxx-xxx-xxx-666-xxx---xxx/x-x-x-/x-x-x-/x-x-x-/x-x-x-x-x-x------|
a--666-555-333-111-xxx-111---666/8-8-8-/101010/111111/1313138-8-8------|
e------------------444-------------------------------------------------|

VERSE 1:

guitar 2:

e-------------------------------------------------------------------------|
b-------------------------------------------------------------------------|
g-------------------------------------------------------------------------|
d--8-88888888-8-88888888-5-55555555-3-333333333-------------3-333333333---|
a--6-66666666-5-55555555-3-33333333-1-111111111-6-666666666-1-111111111---|x2
e-----------------------------------------------4-444444444---------------|

guitar 1:

start playing when guitar 2 is playing his/her part the 2nd time.

e------------------------|
b---------11-------------|
g--8-7h8-----8-7h8-7h8---|
d------------------------|
a------------------------| play as many times needed
e------------------------|

PRE-CHORUS:

guitar 2:

e--------------------------------------------------------|
b--------------------------------------------------------|
g--------------------------------------------------------|
d--88x8x8x8-88x8x8x8-55x5x5x5-33x3x3x3-----------3-~~~---|
a--66x6x6x6-55x5x5x5-33x3x3x3-11x1x1x1-66x6x6x6--1-~~~---|
e--------------------------------------44x4x4x4----------|

guitar 1:

you can hear this only for a few seconds..listen out for it....

e-----------------|
b--11x11x11x11x---|
g-----------------|

CHORUS:

guitar 1+2:

im really not sure about this but this is the best ive worked it out as so far.........

e-----------------------------------------------------------------------|
b-----------------------------------------------------------------------|
g--888888888-77-13131313131313-1212-151515151515-141414-121212-101010---|
d--xxxxxxxxx-xx-x-x-x-x-x-x-x--x-x--x-x-x-x-x-x--x-x-x--x-x-x--x-x-x----|
a--666666666-55-11111111111111-1010-131313131313-121212-101010-8-8-8----|x2
e-----------------------------------------------------------------------|

INTRO:
VERSE:
PRE-CHORUS:
CHORUS:

BRIDGE:

guitar 2:

e------------------------------------|
b------------------------------------|
g------------------------------------|
d------------------------------------|
a--33333333/6666333311111/33333------|x3
e------------------------------------|

then play this:                    /|
                                  / |
e-------------------             /  |
b-------------------                |
g-------------------                |
d--66666666666666---                |
a--66666666666666---                |
e--44444444444444---                |
   **************                   |
                                    |
then go back to this bit again------|

then play this:

 ( hes the lonly guy .......)
e------------------------------------|
b------------------------------------|
g------------------------------------|
d--666666666666666-888888888888888---|
a--666666666666666-888888888888888---|x2
e--444444444444444-666666666666666---|
   *************** ***************

guitar 1:

e----------------|
b-8-8/11-8-6-8---|
g----------------|x3

CHORUS:
INTRO:

END ON:

e------------|
b------------|
g------------|
d--8-~~~~~---|
a--8-~~~~~---|
e--6-~~~~~---|
Suggest correction
Creating personal tab
Creating personal tab
You can edit any tab online and save it as your Personal.

You can edit, replace or remove any tab part or add personal notes – all changes will be seen only by you.

Personal tabs can be accessed anytime from any device, even offline.
Learn more »
Give kudos to tab author, rate the tab!
1 2 3 4 5
comments
print report bad tab
2 comments total.
0 reply
19371 1,056 Aug 10, 2007 02:15 PM

It's Half a step down 9All of the songs are, apart from Ticket, Sick and Little ThingS). The Intro Is:

E|--------------------------------------------|
B|-----9-7-----------7------------------------|
G|---7-------9---9-7---9-7--------------------|
D|-7-------7---7------------------------------|
A|--------------------------------------------|
E|--------------------------------------------|

Hope this helps

0 reply
blubba 10 Dec 04, 2007 09:04 AM

the verse was great but the chorus sounded quite bad. the frist chord was right but the rest were wrong. yea try it half
a step down than it would be a bit better

guest
You may want to rate the tab now too:
select rating
Wanna post a correction for this tab? Suggest correction