Oops, an error
Loading. Please wait.

Thunderbirds intro tab

2,364 views 3 this week
2 commentsread comments
1 2 3 4 5
2 more votes to show rating
add to favorites
×
Save as Personal and add changes to this tab that will be seen only by you. Learn more ›
×
You can save this tab as Personal to edit and correct it or add notes. All changes will be seen only by you. Learn more »
launch autoscroll
font size
0
reset
how to read this tab
guitar tuner
edit
Autoscroll
slow
fast
+/-
esc
set tempo
stop
Author
Difficulty
hey im not so sure if this is right but it sounds ok! hope you enjoy!

+  quiver your hand

e----------------------------------3---------|
B----------------------3--6-6--3-6-----------|
G--3---3--5-++--3-3--5----------------5-++---|
D----5---------------------------------------|
A--------------------------------------------|
E--------------------------------------------|

e----------------------------------3------|
B----------------------3--6-6--3-6--------|
G--3---3--5-++--3-3--5----------------5---|
D----5------------------------------------|
A-----------------------------------------| X2
E-----------------------------------------|

iv sort ov worked out the whole song but i need to alter it a bit! i will get it posted 
soon as i finish it!

            
            
Suggest correction
Creating personal tab
Creating personal tab
You can edit any tab online and save it as your Personal.

You can edit, replace or remove any tab part or add personal notes – all changes will be seen only by you.

Personal tabs can be accessed anytime from any device, even offline.
Learn more »
Give kudos to tab author, rate the tab!
1 2 3 4 5
comments
print report bad tab
2 comments total.
0 reply
Mirosha 20 Aug 26, 2006 06:10 AM

it sounds a lil bit wrong... i guess that sounds better...

E -------------1-1--1-3-
B ------1----1----3----1
G 3-0-3---33------------

0 reply
jeebly 10 Sep 26, 2010 06:47 AM

no scrat 182 is right. thats wrong, very wrong Mirosha

guest
You may want to rate the tab now too:
select rating
Wanna post a correction for this tab? Suggest correction