Oops, an error
Loading. Please wait.

Were Not Alone tab

version 1
version 1

Whole song

820 views 1 this week
2 commentsread comments
1 2 3 4 5
2 more votes to show rating
add to favorites
×
Save as Personal and add changes to this tab that will be seen only by you. Learn more ›
×
You can save this tab as Personal to edit and correct it or add notes. All changes will be seen only by you. Learn more »
launch autoscroll
font size
0
reset
how to read this tab
guitar tuner
edit
Autoscroll
slow
fast
+/-
esc
set tempo
stop
Author
Difficulty
-------------------------------------------------------------------------------
                          We're Not Alone - Son of Dork
-------------------------------------------------------------------------------
Tabbed by: Dan Fallows (Sick of you)
Email: fallows9@hotmail.co.uk

Tuning: Standard (EADGBe)

I dont know how many times these are strummed, just listen for the chord change!

  ''Standning in crop circles, naked, gazing at the stars...''                                            
e|-----------------------------------------------------|-----|
B|-----------------------------------------------------|-----|
G|-------------7777777777-77777777--9--9999999------7--|-----|
D|--4444444444-7777777777-77777777--9--9999999---4--7--|--4--|
A|--4444444444-5555555555-55555555--7--7777777---4--5--|--4--|
E|--2222222222-----------------------------------2-----|--2--|
    xxxxxxxxxx xxxxxxxxxx              xxxxxxx

''I hope they bring back Elvis cause how crazy would that be''
e|-----------------------------------------------------|
B|-----------------------------------------------------|
G|-------------7777777777-77777777--9--9999999------7--|
D|--4444444444-7777777777-77777777--9--9999999---4--7--|
A|--4444444444-5555555555-55555555--7--7777777---4--5--|
E|--2222222222-----------------------------------2-----|
    xxxxxxxxxx xxxxxxxxxx              xxxxxxx

Pre-Chorus

''The truth of pentagon ignored''
e|--------------------------------------------------|
B|--------------------------------------------------|
G|--9999999999999--777777777777--99999999999-----7--|
D|--9999999999999--777777777777--99999999999--4--7--|
A|--7777777777777--555555555555--77777777777--4--5--|
E|--------------------------------------------2-----|

Chorus     
        Play This x2              Then this x2
e|-------------------------|-------------------------|
B|-------------------------|-------------------------|
G|-------7777--99999--6-4--|-------7777--9999--7777--|< 'Is there anyone...'
D|--444--7777--99999--6-4--|--444--7777--9999--7777--| 
A|--444--5555--77777--4-2--|--444--5555--7777--5555--|
E|--222--------------------|--222--------------------|

End of chours
e|----------------------|
B|----------------------|
G|--11111111------------|
D|--11111111--12121212--|
A|---9-9-9-9--12121212--|
E|------------10101010--|

(Working on the solo)

Part after the solo

''The truth of pentagon ignored''

e|--------------------|
B|--------------------|
G|---------777777--9--|
D|--44444--777777--9--|
A|--44444--555555--7--|
E|--22222-------------|


End Chorus     
        Play This x2         Then this as many times until song finishes
e|-------------------------|-------------------------|
B|-------------------------|-------------------------|
G|-------7777--99999--6-4--|-------7777--9999--7777--|< 'Is there anyone...'
D|--444--7777--99999--6-4--|--444--7777--9999--7777--| 
A|--444--5555--77777--4-2--|--444--5555--7777--5555--|
E|--222--------------------|--222--------------------|


End with
e|----------------------|
B|----------------------|
G|--11111111------------|
D|--11111111--12121212--|
A|---9-9-9-9--12121212--|
E|------------10101010--|

            
            
Suggest correction
Creating personal tab
Creating personal tab
You can edit any tab online and save it as your Personal.

You can edit, replace or remove any tab part or add personal notes – all changes will be seen only by you.

Personal tabs can be accessed anytime from any device, even offline.
Learn more »
Give kudos to tab author, rate the tab!
1 2 3 4 5
comments
print report bad tab
2 comments total.
0 reply
Lloyd_Griffiths 189 Feb 19, 2007 10:02 AM

you really nailed an awesome song there! But no1 has done the solo yet could you work it out please

0 reply
Sick_of_you 459 Feb 20, 2007 05:33 AM

I'm working on it, you kinda reminded me that i promised to put it up, ive just been lazy, ha! next few days i promise :)

guest
You may want to rate the tab now too:
select rating
Wanna post a correction for this tab? Suggest correction