Oops, an error
Loading. Please wait.

Back Into Your World Chords

37 views 1 this week
no commentswrite comment
1 2 3 4 5
3 more votes to show rating
add to favorites
launch autoscroll
font size
0
reset
transpose
0
reset
simplify chords
display chords
guitar tuner
Autoscroll
slow
fast
+/-
esc
set tempo
stop
Help us to improve Ultimate-Guitar.com Take our survey!
×
Author
Difficulty
Tuning
novice
D# G# C# F# A# D#
Back Into Your World
From the album Straightaways

TD 1/2 STEP

[INTRO]

   G6             G6/F#          Em7            G6/F#
e|-------0--------------0---------------0----------------------|
B|-----3---3----------3---3-----------3---3-------3----3-2-0---|
G|---0-------0------0-------0-------0-------0--------0-------2-|
D|-------------0--------------0---------------0----------------|
A|-------------------------------------------------------------|
E|-3--------------2--------------0--------------2--------------|

   G6             G6/F#          A            
e|-------0--------------0------------------3----|
B|-----3---3----------3---3--------------3----5-|
G|---0-------0------0-------0----2---2h4--------|
D|-------------0--------------0-----------------|
A|----------------------------------------------|
E|-3--------------2-----------------------------|

[VERSE 1]

D
  Living for the moment
A
  It flashes and fades
               Bm
And takes you down
   G               D    A
Familiar deserted byways

D
  Shelf-stored memories
A
  Lead you where you been
         Bm
No long ago
      G                   D   A
And guess who's guessing now?

[CHORUS]

        G6   G6/F#
Let me back        into your world
Em7                     G6/F#
    At the blink of the eye
              G6
No uncertain terms
       G6/F#           A
Let me back into your world

[VERSE 2]

D
  You should know
A                 Bm
  What is real by now
         G                 D     A
Let the judges meet their makers

D
  Can't slow down
A                          Bm
  Burning at four-barrel speed
   G                       D       A
A battle cry to treat this absence

[CHORUS]

        G6   G6/F#
Let me back        into your world
Em7                     G6/F#
    At the blink of the eye
              G6
No uncertain terms
       G6/F#           A
Let me back into your world

[SOLO]

D A Bm G D A

G6 G6/F# Em7 G6/F#

G6 G6/F# A

[VERSE 3]

D
  Spent the promises
A                 Bm
  Spent the meantime
        G                D              A
Through ins and outs of halfway house boundaries

D
  Leave this impasse
A                            Bm
  If you're gonna leave anything
      G                       D                A
Just don't leave here without   speaking your mind

[CHORUS]

        G6   G6/F#
Let me back        into your world
Em7                     G6/F#
    At the blink of the eye
              G6
No uncertain terms
       G6/F#           A
Let me back into your world

[OUTRO]

G6 G6/F# Em7 G6/F#

G6 G6/F# A

D Dsus4 D Dsus4 D Dsus4 D
Suggest correction
Give kudos to tab author, rate the tab!
1 2 3 4 5
comments
print report bad tab
guest
You may want to rate the tab now too:
select rating
Wanna post a correction for this tab? Suggest correction