Oops, an error
Loading. Please wait.

Creosote chords

334 views 1 this week
no commentswrite comment
1 2 3 4 5
2 more votes to show rating
add to favorites
×
Save as Personal and add changes to this tab that will be seen only by you. Learn more ›
×
You can save this tab as Personal to edit and correct it or add notes. All changes will be seen only by you. Learn more »
launch autoscroll
font size
0
reset
transpose
0
reset
display chords
guitar tuner
edit
Autoscroll
slow
fast
+/-
esc
set tempo
stop
Strumming
There is no strumming pattern for this song yet. and get +5 IQ
Creosote
From the album Straightaways

[Intro]

   G                                                               
e|-----------------------------------------------------------------|
B|---3-----3---3-----3---------3---3----3-----3---3----------------|
G|-4---4-2---0---------0---------0----4---4-2---0------------------|
D|----------------2-------2h5------------------------2--0----------|
A|--------------------------------------------------------2--2-0---|
E|---------------------------------------------------------------3-|

   D                                         C 
   d  d u d  d u d  d u d  d u d  d u d  d u d  d u d  d u     
e|-2--2-2----2-2----2-2----2-2----2-2----2-2-0--0-0----0-0-|
B|-3--3-3----3-3----3-3----3-3----3-3----3-3-1--1-1----1-1-|
G|-2--2-2----2-2----2-2----2-2----2-2----2-2-0--0-0----0-0-|
D|-0-------------0-------------0-------------2--2-2----2-2-|
A|--------0-------------0-------------0------3--3-3----3-3-|
E|--------------------------------------------------3------|

[Verse 1]

G                D
  Passing under barren skies
C                 Am
  Waiting for our worlds to collide
               G
And there you are
      D            C  Am
All alone feeling bad
G             D
  Interstate movin' again
C                  Am
  Barrel through thick and thin
         G
Side by side
       D             C   G
To survive like creosote

[Chorus]

C
  Born under widespread changes
      G
The search for higher reason
C
  Learning the ropes okay
     Am                  D
But fate just runs you around

[Interlude]

   G                                                               
e|-----------------------------------------------------------------|
B|---3-----3---3-----3---------3---3----3-----3---3----------------|
G|-4---4-2---0---------0---------0----4---4-2---0------------------|
D|----------------2-------2h5------------------------2--0----------|
A|--------------------------------------------------------2--2-0---|
E|---------------------------------------------------------------3-|

   D                                         C 
   d  d u d  d u d  d u d  d u d  d u d  d u d  d u d  d u     
e|-2--2-2----2-2----2-2----2-2----2-2----2-2-0--0-0----0-0-|
B|-3--3-3----3-3----3-3----3-3----3-3----3-3-1--1-1----1-1-|
G|-2--2-2----2-2----2-2----2-2----2-2----2-2-0--0-0----0-0-|
D|-0-------------0-------------0-------------2--2-2----2-2-|
A|--------0-------------0-------------0------3--3-3----3-3-|
E|--------------------------------------------------3------|

[PEDAL STEEL SOLO]
G D C Am
G D C Am
G D C Am
G D C G

[Chorus]

C
  Born under widespread changes
      G
The search for higher reason
C
  Learning the ropes okay
     Am                  D
But fate just runs you around

[Interlude]

   G                                                               
e|-----------------------------------------------------------------|
B|---3-----3---3-----3---------3---3----3-----3---3----------------|
G|-4---4-2---0---------0---------0----4---4-2---0------------------|
D|----------------2-------2h5------------------------2--0----------|
A|--------------------------------------------------------2--2-0---|
E|---------------------------------------------------------------3-|

   D                                         C 
   d  d u d  d u d  d u d  d u d  d u d  d u d  d u d  d u     
e|-2--2-2----2-2----2-2----2-2----2-2----2-2-0--0-0----0-0-|
B|-3--3-3----3-3----3-3----3-3----3-3----3-3-1--1-1----1-1-|
G|-2--2-2----2-2----2-2----2-2----2-2----2-2-0--0-0----0-0-|
D|-0-------------0-------------0-------------2--2-2----2-2-|
A|--------0-------------0-------------0------3--3-3----3-3-|
E|--------------------------------------------------3------|

[Verse 2]

G                  D
  From Memphis to New Orleans
C                Am
  In and out of railroad dreams
       G
You're out there
     D            C  Am
In scenes passing by
G                  D
  Everyone faces what they deserve
C                 Am
  A carousel to claim or curse
           G
Sticking around
     D            C   G
At least for the ride

[Chorus]

C
  Born under widespread changes
      G
The search for higher reason
C
  Learning the ropes okay
     Am                  D
But fate just runs you around

[Outro]

   G                                                               
e|-----------------------------------------------------------------|
B|---3-----3---3-----3---------3---3----3-----3---3----------------|
G|-4---4-2---0---------0---------0----4---4-2---0------------------|
D|----------------2-------2h5------------------------2--0----------|
A|--------------------------------------------------------2--2-0---|
E|---------------------------------------------------------------3-|

   D                                         C 
   d  d u d  d u d  d u d  d u d  d u d  d u d  d u d  d u     
e|-2--2-2----2-2----2-2----2-2----2-2----2-2-0--0-0----0-0-|
B|-3--3-3----3-3----3-3----3-3----3-3----3-3-1--1-1----1-1-|
G|-2--2-2----2-2----2-2----2-2----2-2----2-2-0--0-0----0-0-|
D|-0-------------0-------------0-------------2--2-2----2-2-|
A|--------0-------------0-------------0------3--3-3----3-3-|
E|--------------------------------------------------3------|

   G                                                               
e|-------------------------------------------------------------------------3-|
B|---3-----3---3-----3--------3---3-----3-----3---3------------------------3-|
G|-4---4-2---0---------0--------0-----4---4-2---0--------------------------0-|
D|----------------2-------2h5------------------------2---0-----------------0-|
A|----------------------------------------------------------2---2--0-------2-|
E|---------------------------------------------------------------------3---3-|
                                                     *Play slowly------------



************************************

| h  Hammer-on

************************************

            
            
Suggest correction
Creating personal tab
Creating personal tab
You can edit any tab online and save it as your Personal.

You can edit, replace or remove any tab part or add personal notes – all changes will be seen only by you.

Personal tabs can be accessed anytime from any device, even offline.
Learn more »
Give kudos to tab author, rate the tab!
1 2 3 4 5
comments
print report bad tab
guest
You may want to rate the tab now too:
select rating
Wanna post a correction for this tab? Suggest correction