Oops, an error
Loading. Please wait.

Picking Up The Signal chords

211 views 9 this week
no commentswrite comment
1 2 3 4 5
3 more votes to show rating
add to favorites
×
Save as Personal and add changes to this tab that will be seen only by you. Learn more ›
×
You can save this tab as Personal to edit and correct it or add notes. All changes will be seen only by you. Learn more »
launch autoscroll
font size
0
reset
transpose
0
reset
simplify chords
display chords
guitar tuner
edit
Autoscroll
slow
fast
+/-
esc
set tempo
stop
Strumming
There is no strumming pattern for this song yet. and get +5 IQ
Picking Up the Signal
From the album Straightaways

[INTRO]

      D         G              A                     G  D
e|--0-2-----------3---------------3------------------3--2-|
B|--3-3-------------3---------------3----------------3--3-|
G|--2-2-2h4-2-0--------------------------------------0--2-|
D|-0-------------------2h4-2-0---------2h4-2-0-X-----0--0-|
A|--------------2--------------0---------------------2----|
E|---------------------------------------------------3----|

   D             G              A               D       G  D
e|-2-0-2-----------3---------------3---------------2----3--2-|
B|-3-3-3-------------3---------------3---------------3--3--3-|
G|-2-2-2-2h4-2-0----------------------------------------0--2-|
D|-0--------------------2h4-2-0---------2h4-2-0-0-------0--0-|
A|---------------2--------------0-----------------------2----|
E|------------------------------------------------------3b---|

[VERSE 1]

D             G
We've been through the thick
A               D     G D
  Straightaways after
D              G
  Dragged for days on end
 A        G        D
Turning away from faster

[BRIDGE]

Em      A
  Downshifting low
Em           A
  Reaches a point you know

       D         G              A                     G  D
 e|--0-2-----------3---------------3------------------3--2-|
 B|--3-3-------------3---------------3----------------3--3-|
 G|--2-2-2h4-2-0--------------------------------------0--2-|
 D|-0-------------------2h4-2-0---------2h4-2-0-X-----0--0-|
 A|--------------2--------------0---------------------2----|
 E|---------------------------------------------------3----|
But I can't complain 'cause I know    you're around

[VERSE 2]

D     G
  Keeping with
A                       D  G D
  And then it faded to use
D           G
  Set the stage to lip
 A                G    D
Running from the countdown crew

[BRIDGE]

Em      A
  Downshifting low
Em           A
  Reaches a point you know

       G    F#/G Em
But I can't         complain, 
       G    F#/G Em            A                D
no I can't          'cause I know that you're around

D Dsus4 D

D Dsus4

[CHORUS]

D       A            Bm    G            D
  After all this confusion   is put aside
      A     Bm            G
After all, finally gonna make it right

[INTERLUDE]

G G

D A Bm G X2

G G 

      D         G              A                     G  D
e|--0-2-----------3---------------3------------------3--2-|
B|--3-3-------------3---------------3----------------3--3-|
G|--2-2-2h4-2-0--------------------------------------0--2-|
D|-0-------------------2h4-2-0---------2h4-2-0-X-----0--0-|
A|--------------2--------------0---------------------2----|
E|---------------------------------------------------3----|

[VERSE 3]

D      G
  I hear the beat
A                       D   G D
  Of a thousand conga drums
D         A              G
  Picking up the signal right here
F#/G        Em        D
     Right here after all

[CHORUS]

D A                Bm    G            D
    After this confusion   is put aside
      A     Bm            G
After all, finally gonna make it right

[OUTRO]

G G

D A Bm G X2

G G 

   D             G              A               D       
e|---0-2-----------3---------------3---------------2----------|
B|---3-3-------------3---------------3---------------3--------|
G|---2-2-2h4-2-0----------------------------------------------|
D|-0--------------------2h4-2-0---------2h4-2-0-0-----------0-|
A|---------------2--------------0-----------------------0h2---|
E|------------------------------------------------------------|

   D             G              A               D       
e|---0-2-----------3---------------3---------------2----------|
B|---3-3-------------3---------------3---------------3--------|
G|---2-2-2h4-2-0----------------------------------------------|
D|-0--------------------2h4-2-0---------2h4-2-0-0-----------0-|
A|---------------2--------------0-----------------------0h2---|
E|------------------------------------------------------------|

      D         G              A                     G  D
e|--0-2-----------3---------------3------------------3--2-|
B|--3-3-------------3---------------3----------------3--3-|
G|--2-2-2h4-2-0--------------------------------------0--2-|
D|-0-------------------2h4-2-0---------2h4-2-0-X-----0--0-|
A|--------------2--------------0---------------------2----|
E|---------------------------------------------------3----|

D G A G D X3

D A G

G G 

D

            
            
Suggest correction
Creating personal tab
Creating personal tab
You can edit any tab online and save it as your Personal.

You can edit, replace or remove any tab part or add personal notes – all changes will be seen only by you.

Personal tabs can be accessed anytime from any device, even offline.
Learn more »
Give kudos to tab author, rate the tab!
1 2 3 4 5
comments
print report bad tab
guest
You may want to rate the tab now too:
select rating
Wanna post a correction for this tab? Suggest correction