Oops, an error
Loading. Please wait.

Among The Shooting Stars Tab

148 views 3 this week
no commentswrite comment
1 2 3 4 5
3 more votes to show rating
add to favorites
launch autoscroll
font size
0
reset
how to read this tab
guitar tuner
Autoscroll
slow
fast
+/-
esc
set tempo
stop
Help us to improve Ultimate-Guitar.com Take our survey!
×
Author
Difficulty
intermediate
About this tab version
One accurate tab version for Sonata Arctica's "Among The Shooting Stars". Was this info helpful? Yes No
It's two days now that the song is out, so here are the tabs and basic chords without the strumming ptterns.

There was a boy...
e|-2---2-4-----------|
B|---2-------5---5-6-|
G|-------------4-----|
D|-4-----------------|
A|-----------7-------|
E|-------------------| x4

   Fm Bbm  D#  Cm
e|-1---1---3---3-|
B|-1---2---4---4-|
G|-1---3---3---5-|
D|-3---3---5---5-|
A|-3---1---6---3-|
E|-1---1---3---3-| x2

He's always been a dreamer...
e|-------4-3-------------4-3---1---------------1-------------|
B|-------------4-------------------4---------4---4-----3-4-1-|
G|-----1---------------1---------------3---3-------0---------|
D|---3---------------3---------------1---1-------------------|
A|-3---------3-----3---------------------------------3-------|
E|-----------------------------------------------------------| x2

No music for the lonely...
  Bbm  D#   G#  Fm
e|-6---11---4---1-|
B|-6---11---4---1-|
G|-6---12---5---1-|
D|-8---13---6---3-|
A|-8---13---6---3-|
E|-6---11---4---1-| x2 - palm muted, x1 - open chord

The bane of an innocent dreamer...
  D#m   G#  F#  C#  Bbm
e|-11---4---2---9----6-|
B|-11---4---2---9----6-|
G|-11---5---3---10---6-|
D|-13---6---4---11---8-|
A|-13---6---4---11---8-|
E|-11---4---2---9----6-| x1

Six words for a helpless drifter...

Save Me, If you cannot save me...
   D#   G#  C#  Bbm
e|-11---4---9----6-|
B|-11---4---9----6-|
G|-11---5---10---6-|
D|-13---6---11---8-|
A|-13---6---11---8-|
E|-11---4---9----6-| x2

She finds a tiny snow globe...
e|-------4-3-------------4-3---1---------------1-------------|
B|-------------4-------------------4---------4---4-----3-4-1-|
G|-----1---------------1---------------3---3-------0---------|
D|---3---------------3---------------1---1-------------------|
A|-3---------3-----3---------------------------------3-------|
E|-----------------------------------------------------------| x2

Full moon confessions, lucid fantasy...
   Am  Dm  G   Am  Dm  G   E   Am  G   Am  Dm  G
e|-0---1---3---0---1---3---0---0---3---0---1---3-|
B|-1---3---0---1---3---0---0---1---0---1---3---0-|
G|-2---2---0---2---2---0---1---2---0---2---2---0-|
D|-2---0---0---2---0---0---2---2---0---2---0---0-|
A|-0---0---2---0---0---2---2---0---2---0---0---2-|
E|-0---0---3---0---0---3---0---0---3---0---0---3-| x1

Save me, you only could save me...
   Am  Dm  G   E   
e|-0---1---3---0-|
B|-1---3---0---0-|
G|-2---2---0---1-|
D|-2---0---0---2-|
A|-0---0---2---2-|
E|-0---0---3---0-| x4
Suggest correction
Give kudos to tab author, rate the tab!
1 2 3 4 5
comments
print report bad tab
guest
You may want to rate the tab now too:
select rating
Wanna post a correction for this tab? Suggest correction