Oops, an error
Loading. Please wait.

Art Of Jani Liimatainen Tab

2,765 views 1 this week
no commentswrite comment
1 2 3 4 5
please rate
add to favorites
launch autoscroll
font size
0
reset
how to read this tab
guitar tuner
Autoscroll
slow
fast
+/-
esc
set tempo
stop
Help us to improve Ultimate-Guitar.com Take our survey!
×
 
the art of Jani Liimatainen from Sonata Arctica 
  




Tabbed by: frozenpineapple
Email: anti-hangover@hotmail.com




Tuning: half step down Eb/Ab/Db/Gb/Bb/Eb




 Ex-1
-
Eb|------------------------------------------------------------------------|
Bb|------------------------------------------------------------------------|
Gb|--12---11---7-------------------------11---9~---11-----6-6---7----6-----|
Db|--9----9----9------12--10-10---12-----0----0----0------7-7---7----7-----|
Ab|--7----7----7------10--10-10---10----------------------0-0---0----0-----|
Eb|-------------------8---8--8----8----------------------------------------|

Eb|----------------------------------------------------------|
Bb|----------------------------------------------------------|
Gb|--12--11-11---7-------------------------------------------|
Db|--9---9--9----9----12--10-10---9------7-------------------|
Ab|--7---7--7----7----10--10-10---10-----5----------5-5-2----|
Eb|-------------------8---8--8----------------5h7-0-3-2-0----|

 Ex-2 
 
Eb|--------------------------------------------------------|
Bb|--------------------------------------------------------|
Gb|--9------------9----------------------------------------|
Db|--------9------------9-------------12------------12-----|
Ab|----777---777----777---777--10-777---777--10-777----777-|
Eb|--------------------------------------------------------|

Eb|--------------------------------------------------------|
Bb|--------------------------------------------------------|
Gb|--------------------------------------------------------|
Db|--12----7------12----7------12-----7------12-----11-----|
Ab|----777---777----777---777-----777---777----777----777--|
Eb|--------------------------------------------------------|

 Ex-3 

Eb|--13p10h11h13p11p10------------------------------------------------|
Bb|-------------------13p10h11h13p11p10-------------------------------|
Gb|------------------------------------12p8h10h12p10p8----------------|
Db|---------------------------------------------------12p8h10h12p10p8-|
Ab|-------------------------------------------------------------------|
Eb|-------------------------------------------------------------------|

Eb|---------------------------------------------------------|
Bb|---------------------------------------------------------|
Gb|--10p7h8h10p8p7------------------------------------------|
Db|---------------10p7h8h10p8p7-----------------------------|
Ab|----------------------------10p6h8h10p8p6----------------|
Eb|-----------------------------------------10p6h8h10p8p----|

 Ex-4 

Eb|-----------------------------------7-8-10------|
Bb|----------------------------7-8-10-------------|
Gb|----------------------4-5-7--------------------|
Db|----------------4-5-7--------------------------|
Ab|----------2-3-5--------------------------------|
Eb|--0-2-3-5--------------------------------------|

Eb|-----------------------------------------12-14-15-|
Bb|--------------------------------12-13-15----------|
Gb|------------------------9-11-12-------------------|
Db|----------------9-10-12---------------------------|
Ab|---------7-9-10-----------------------------------|
Eb|--7-8-10------------------------------------------|

 Ex-5 

Eb|--h19p15h19p15p12p10-h17p15h17p15p12p10--|
Bb|-----------------------------------------|
Gb|-----------------------------------------|
Db|-----------------------------------------|
Ab|-----------------------------------------|
Eb|-----------------------------------------|

Eb|---------------------------------------------------------------|
Bb|--h20p15h20p15p12p10-h19p15h19p15p12p10--17b19r17-15-12--------|
Gb|--------------------------------------------------------14-12~-|
Db|---------------------------------------------------------------|
Ab|---------------------------------------------------------------|
Eb|---------------------------------------------------------------|

 Ex-6

Eb|-----------------------------------------|
Bb|--------------10h12-13p12p10-------------|
Gb|-----------------------------------------|
Db|-----10-12h14----------------14-12p10----|
Ab|--12-------------------------------------|
Eb|-----------------------------------------|

Eb|-----------------------------------------|
Bb|--------------13h15-17p15p13-------------|
Gb|-----------------------------------------|
Db|-----12-14h17----------------17-15p14----|
Ab|--15-------------------------------------|
Eb|-----------------------------------------|

Eb|--------------13h15-17p15p13-------------|
Bb|----------------------------13-----------|
Gb|-----12-14h17------------------15p14-----|
Db|--15---------------------------------15~-|
Ab|-----------------------------------------|
Eb|-----------------------------------------|


| /  slide up
| \  slide down
| h  hammer-on
| p  pull-off
| ~  vibrato
| +  harmonic
| x  Mute note


Suggest correction
Give kudos to tab author, rate the tab!
1 2 3 4 5
comments
print report bad tab
guest
You may want to rate the tab now too:
select rating
Wanna post a correction for this tab? Suggest correction