Oops, an error
Loading. Please wait.

As If The World Wasnt Ending Tab

version 1
version 1

Whole song

715 views 3 this week
2 commentsread comments
1 2 3 4 5
please rate
add to favorites
launch autoscroll
font size
0
reset
how to read this tab
guitar tuner
Autoscroll
slow
fast
+/-
esc
set tempo
stop
Help us to improve Ultimate-Guitar.com Take our survey!
×
AS IF THE WORLD WASN'T ENDING- Sonata Arctica
Standard tuning version by sinForge xJp

**NOTE FOR THE PLAYER**
The purpose of this tab is to transpose the power chords from what
was likely a 7 string tuned down, to a 6 string in standard tuning 


INTRO's PROGRESSION
G#m  F#  B  C#m  E.. F#sus4 F#..
G#m  F#  B  C#m  E.. F#sus4 F#..   


VERSE(s)/SOLO
e|----------------------------------------------------------------------------|-
B|----------------------------------------------------------------------------|-
G|----------------------------------------5---6-------------------------------|-
D|-6---------8------3---4---------8-------6---6---------6----------8----------|-
A|-6---------6------4---4---------8-------3---4---------6----------6----------|-
E|-4---------6------1---2---------6---------------------4----------6----------|-
   Started.. person..   Chose..   some..      guess..   world..    that..  #1
 I chose..  instead..   day..     flames..    wait..    everyone.. need..  #2
   

BRIDGE(s)
e|----------------------------------------------------------|-
B|----------------------------------------------------------|-
G|----------------------------------------------------------|-
D|-6------------4-------3-------6-------2-------4-----------|-
A|-6------------4-------4-------4-------2-------4-----------|-
E|-4------------2-------1-------4-------0-------2-----------|-
   Oooh..               yeah!!                           #1
   ending..   ..As if.. world.. ending..      ..As if..  #2


CHORUS(s)
e|---------------------------------------------------------------------|-
B|---------------------------------------------------------------------|-
G|---------------------4-----------------------------------------------|-
D|-6---------8---------4---------6---------2--------------4------------|-
A|-6---------9---------2---------4---------2--------------4------------|-
E|-4---------6-------------------4---------0--------------2------------|-
   Chains  removed..   hide..    while..   spotlight's..  me..
Forget..     world..   now..     love..    live..         me..  #1
 
  Masks    removed..   hide..    while..   spotlight's..  me..  
Forget..     world..   now..     love..    live..         me..  #2

   Take  me  where..   cannot..  hear..    people..       me..  
 ..Whisky,   Brandy,   Vodka..   come..    live..         me..  #3



INTRO -> VERSE 1 -> BRIDGE 1 -> VERSE 2 ->  CHORUS 1 -> BRIDGE 2 ->
SOLO -> CHORUS 2 -> CHORUS 3 -> BRIDGE 2 (x2) -> End on MAJOR TONIC =)
Suggest correction
Give kudos to tab author, rate the tab!
1 2 3 4 5
comments
print report bad tab
2 comments total.
0 reply
Thag7 10 wrote on July 23 2010, 01:35 pm

Pretty awesome job! This song a a incredible good keyboard solo, flawless work! lml

0 reply
sinForge xJp 1,483 wrote on July 24 2010, 01:32 am

Thanks so much!!

guest
You may want to rate the tab now too:
select rating
Wanna post a correction for this tab? Suggest correction