Oops, an error
Loading. Please wait.

Draw Me Tab

version 1
version 1

Whole song

Interactive

7,771 views 18 this week
1 commentread comment
1 2 3 4 5
please rate
add to favorites
launch autoscroll
font size
0
reset
how to read this tab
guitar tuner
Tab Pro tools
  • play this tab
  • loop segment
  • change instrument
  • show fretboard
  • metronome
×
Best way to learn
"Draw Me"
Autoscroll
slow
fast
+/-
esc
set tempo
stop
Contributor
DRAW ME (sonata arctica)

    Bm                  G               A7
E------------------------------------------------------------------------|
B---2-------2—0-------------------------0--------------------------------|
G-----------------------2------0----------------2--------0---------------|
D-------4------------------0------0---------2-------2-----------4--------|
A---2-----------------------------------0-------------------0------0-----|
E-----------------------3------------------------------------------------|

      Bm        G                 A7 (sus 4)
E------------------------------------------------0---------------|
B---2------2—1------------------------0---2-h-3---------3--------|
G---------------2-------0----------2--------- ------0-------0----|
D-------4-----------0------0-------------------------------------|
A---2------------------------------0-----------------------------|
E---------------3------------------------------------------------|

Bm
Blessed witrh an eye to see things as they are,
          D
Will you draw me?
     Bm
Up there on the wall,
         D
Looking down to us all,
          Em
You never saw me...
F#m
I found a pen and I outlined a life.
Em
You've never cried,
I think I saw a tear in your eye.

     Bm
Your eyes tell the tale,
I will not ask again.
      D
Now I see what you've lost,
Nothing is quite the same.
       Bm
By the love of my heart,
        D
Cut my drawing in half,
       Em
For I think I'm like you...
Should you draw me...
A    G  Em      G
Waiting for my evenfall.

(intro)

play this as the firs part:

Farewell, my passion,
You slowly turn pale.
I will long for your warmth,
Made me feel safe.
I will not draw again,
'Til I know it's my time.
I have lived a long life,
Should I draw me...

Morning's here, I must have (stop here 2 times)
failed...


its a good song, and the first I tab, hope you enjoy it, any correction to make send it
here carrositosis@yahoo.com.ar.. greetings from argentina eeevaaaaa jeje!!
comments
We did not receive enough feedback on this tab! Please rate:
print report bad tab
1 2 3 4 5
1 comment total.
0 reply
SonataArctica wrote on November 27 2006, 11:59 am

I can almost play it now ( :
Its good

I want to post or [tab]
guest
You may want to rate the tab now too:
select rating
Please do not post tabs as comments. Select "correction" instead!