Oops, an error
Loading. Please wait.

Draw Me Tab

version 2
version 2

Whole song

Interactive

1,983 views 1 this week
1 commentread comment
1 2 3 4 5
please rate
add to favorites
launch autoscroll
font size
0
reset
how to read this tab
guitar tuner
Autoscroll
slow
fast
+/-
esc
set tempo
stop
Help us to improve Ultimate-Guitar.com Take our survey!
×
| Intro                     | 1.                        | 2.
|--3-----2--0---------------|---------------------------|--------2--3---5--|
|-----0---------3-----------|--5------------------------|--3--5------------|
|*--------------------5----*|--------7------5-----4-----|------------------|
|*-2---------------5-----5-*|-----7-----7------5-----5--|------------------|
|---------------3-----------|--5------------------------|--5---------------|
|---------------------------|---------------3-----------|---------------3--|

                                                                | 2 Guitars
            | 3.                        | 4.                    | Verse 1:
|-----3-----|---------------------------|-----------0-----------|----------|
|--3-----3--|--5------------------------|--3-----3-----3--------|--------7-|
|-----------|--------7------5-----4-----|-----2-----------------|-----4----|
|-----------|-----7-----7------5-----5--|--0-----------0--------|--2-----4-|
|-----------|--5------------------------|-----------------------|-----2----|
|-----3-----|---------------3-----------|-----------------------|--0-------|

|--------------------------------3--------------3--------------------------|
|--5-----------7--8-----------3--------------3--------------7--8-----------|
|-----------4--------------4-----0--------4-----0--------4--------------4--|
|--5-----2-----4--5-----5-----0--------5-----0--------2-----4--5-----5-----|
|-----------2--------------2--------------2--------------2--------------2--|
|--------0--------------3--------------3--------------0--------------3-----|

                                          | bridge: (00:58)               |
|-----3-----------7--8-----------7--5-----|-------------------------------|
|--3-----------5-----1--------5-----1-----|-------------------------------|
|-----0-----2-----4--------2-----4--------|----Keyboard part-(no guitars)-|
|--0-----------2--------------2-----------|-------------------------------|
|-----------0--------------0--------------|-------------------------------|
|-----------------------------------------|-------------------------------|

         | 2 Guitars                                              |
|Verse 2:| Pre-Chorus:                                            |Chorus:|
|--------|--10---------10--8---------8--7---------7--8---------8--|-------|
|--------|---3-----10------1-----10-----0-----10-----1-----10-----|-same--|
|-Same---|------7-------7-----7------5-----7------4-----7------5--|--as---|
|--as----|------0---7---------0---7--------0---7--------0---7-----|-Intro-|
|Verse-1-|--------------------------------------------------------|-------|
|--------|--------------------------------------------------------|-------|

                               | Chorus:(03:01) With distortion guitar.   |
|Verse 3:|Pre-Chorus:|         | the acoustic guitar like before, 2 times.|
|--------|-----------|---------|------------------------------------------|
|--------|-----------|-About-4-|------------------------------------------|
|Same as-|--Same-as--|-seconds-|*-----------------------------------------|
|Verse-1-|--Previous-|-with ---|*-2----4--5----7----5--4--2----4--5----7--|
|--------|-----------|-silence-|--2----2--3----5----5--5--2----2--3----5--|
|--------|-----------|---------|--0-----------------3--2--0---------------|
                                                        | 2. hold chord   |
 (Repeat 2 times)                                 | 1.  |until it dies out|
|-------------------------------------------------|-----|-----------------|
|-------------------------------------------------|-----|-----------------|
|------------------------------------------------*|-----|-----------------|
|-12--12--2----4--5----7----5--4--2----4--5----7-*|--7--|--7~~------------|
|-10--9---2----2--3----5----5--5--2----2--3----5--|--5--|--5~~------------|
|---------0-----------------3--2--0---------------|-----|-----------------|
Suggest correction
Give kudos to tab author, rate the tab!
1 2 3 4 5
comments
print report bad tab
1 comment total.
0 reply
17thmoon 281 wrote on July 31 2011, 05:36 pm

This was taken from the sonata arctica website

guest
You may want to rate the tab now too:
select rating
Wanna post a correction for this tab? Suggest correction