Oops, an error
Loading. Please wait.

Draw Me Tab

version 3
version 3

Whole song

Interactive

5,775 views 6 this week
no commentswrite comment
1 2 3 4 5
excellent!
x 4
add to favorites
launch autoscroll
font size
0
reset
how to read this tab
guitar tuner
Autoscroll
slow
fast
+/-
esc
set tempo
stop
Help us to improve Ultimate-Guitar.com Take our survey!
×
Author
Capo
2nd fret
DRAW ME- Sonata Arctica
Standard Tuning, Capo 2



e|------------------------|------------------------|------------------------|-----------------------|-
B|-1-----0----------------|------------------------|-1-----0----------------|------0--1--3-----1----|-
G|----------2--0----------|-2-----0----------------|----------2--0----------|-0h2-----------0-----0-|-
D|----2--------------3----|----0-----0--3-----2----|----2--------------3----|-----------------------|-
A|-0----------------------|----------------3-----3-|-0----------------------|------------3----------|-
E|-------------1--1-----1-|-3----------------------|-------------1--1-----1-|-3---------------------|-

e|------------------------|------------------------|------------------------|------------------------||
B|-1-----0----------------|------------------------|-1-----0----------------|------------------------||
G|----------2--0----------|-2-----0----------------|----------2--0----------|-0-----0h2p0------------||
D|----2--------------3----|----0-----0--3-----2----|----2--------------3----|------------------------||
A|-0----------------------|----------------3-----3-|-0----------------------|----------------2-------||
E|-------------1--1-----1-|-3----------------------|-------------1--1-----1-|-3--3-----------1-------||


Am                                                      C          C/B
Blessed with an eye to see things as they are, will you draw me
Am                            C                         Dm        Dsus2   
Up there on the wall, looking down to us all, you never saw me
Em                   
I found a pen, and I outlined a life
Dm
You've never cried, I think I saw a tear in your eye

     Am        
Your eyes tell the tale, I will not ask again
      C                                                 C/B
Now I see what you've lost nothing is quite the same
       Am                       C     
By the love of my heart, cut my drawing in half
      Dm                             Dsus2
For I think I'm like you, should you draw me


G  F    Dm     F
Waiting for my evenfall


e|------------------------|------------------------|------------------------|-----------------------|-
B|-1-----0----------------|------------------------|-1-----0----------------|------0--1--3-----1----|-
G|----------2--0----------|-2-----0----------------|----------2--0----------|-0h2-----------0-----0-|-
D|----2--------------3----|----0-----0--3-----2----|----2--------------3----|-----------------------|-
A|-0----------------------|----------------3-----3-|-0----------------------|------------3----------|-
E|-------------1--1-----1-|-3----------------------|-------------1--1-----1-|-3---------------------|-

e|------------------------|------------------------|------------------------|------------------------||
B|-1-----0----------------|------------------------|-1-----0----------------|------------------------||
G|----------2--0----------|-2-----0----------------|----------2--0----------|-0-----0h2p0------------||
D|----2--------------3----|----0-----0--3-----2----|----2--------------3----|------------------------||
A|-0----------------------|----------------3-----3-|-0----------------------|----------------2-------||
E|-------------1--1-----1-|-3----------------------|-------------1--1-----1-|-3--3-----------1-------||


Am     
Farewell, my passion, you slowly turn pale
       C                                       C/B  
I will long for you warmth, made me feel safe
       Am                      C
I will not draw again, 'till I know it's my time
       Dm                          Dsus2
I have lived a long life, should I draw me


G  F      Dm      F                
Morning's here, I must have.. Failed

Am  F  G  C  C/B
Am  F  G

Am      F        G  C  C/B  
..Someone save me


Am  F  G 
Am  F  G  C  C/B  
Am  F  G
Suggest correction
comments
print report bad tab
guest
You may want to rate the tab now too:
select rating
Please do not post tabs as comments. Select "correction" instead!