Oops, an error
Loading. Please wait.

Fullmoon Bass Tab

version 1
version 1

Whole song

Interactive

6,331 views 3 this week
1 commentread comment
1 2 3 4 5
please rate
add to favorites
launch autoscroll
font size
0
reset
guitar tuner
Autoscroll
slow
fast
+/-
esc
set tempo
stop
Help us to improve Ultimate-Guitar.com Take our survey!
×
		verso 1 (bajo entra en 0:40)

G--Intro-(Keyboards)--|------------------------------------------------------------|
D---------------------|------------------------3-----3---3-------------------------|
A---------------------|---------------------------------------------------0--------|
E---------------------|------------------------------------------------------------|

G----------------------------------------------------------------------------------|
D----------2--/5-------------------------------------------------------------------|
A-------------------------------------3----------------0----3--------------0-----~~|
E-----------------------------\-1----------3-----1---------------3----1---------0~~|

G----------------------------------|-----------------------------------------------|
D----------------------------------|-----------------------------------------------|
A---/-0--2--3---5-/7-8--7p5--------|--0--0-0-0--0-0-0--0-0-0--0-0-0--0-0-0--0-0-0--|
E---------------------------8-7~~--|-----------------------------------------------|


G----------------------------------------------------------------------------------|
D----------------------------------------------------------------------------------|
A-0-0-0--0-0-0--0-0-0--0-0-0--0-0-0--0-0-0--0-0-0--0-0-0--0-0-0--0-0-0--0-0-0--0-0-|
E----------------------------------------------------------------------------------|
								
                                                                verso 2
G-------------------------------------------------------------|--------------------|
D-------------------------------------------------------------|--------------------|
A-0--0-0-0--0-0-0--0-0-0--0-0-0--0-0-0--0-0-0--/8----7---11~--|---0--0-0-0--0-0-0--|
E-------------------------------------------------------------|--------------------|


G----------------------------------------------------------------------------------|
D----------------------------------------------------------------------------------|
A-0-0-0--0-0-0--0-0-0--0-0-0--0-0-0--0-0-0--0-0-0--0-0-0--0-0-0--0-0-0--0-0-0--0-0-|
E----------------------------------------------------------------------------------|


				           Bridge
G-----------------------------------------|----------------------------------------|
D------------------/3----3---------------*|--3---3-------------------/-5--5-5--\-3-|
A-0--0-0-0--0-0-0--------------3---------*|----------0---0--/-3---3----------------|
E------------------------------------3----|----------------------------------------|
 
							 
                                                            coro
G-------5-5----------------------------------------------|-----------------8--8----|
D--------------------------------------------------------|-------5-3---------------|
A--------------7-------7-------8---7--7h8p7h8p7-5--------|--0----------3-----------|
E---5-------------0-0-----0-0---------------------8-7-5--|----------------------3--|
               


G----------------5-------------------------------------5---------------------------|
D---------------------3--\-3---------/-5---5----------------3----------------------|
A-------------------------------3--------------------------------3-----------------|
E--3-3----5-------------------------------------5---------------------3---3-3----5-|
 
				     
                                          verso 3
G-----------------------------------|----------------------------------------------|
D---------3-------------------------|----------------------------------------------|
A-------------/-5----3--2-----------|---0--0-0-0--0-0-0--0-0-0--0-0-0--0-0-0--0-0-0|
E---------------------------3--3\---|----------------------------------------------|
					  
									 __________
									|1.
G-----------------------------------------------------------------------|----------|
D-----------------------------------------------------------------------|-/-3---3--|
A-0-0-0--0-0-0--0-0-0--0-0-0--0-0-0--0-0-0--0-0-0--0-0-0--0-0-0--0-0-0--|----------|
E-----------------------------------------------------------------------|----------|
 
 ________________ _____________________________
                 |2.			       |	     coro (2)
G----------------|-----------------------------||--Bridge--|-----------------8--8--|
D---------------*|--/-3----3-------------------||----------|-------5-3-------------|
A--3--------/-0-*|--------------3---\-3--------||----------|--0-----------3--------|
E-------3--------|-------------------------3---||----------|-----------------------|


G--------------------5---------------8--8--------~~----------5---------------------|
D--5--5-5-5--------------3--\-3-------------5---5~~--------------3--\-3--------/-5-|
A---------------------------------3----------------------------------------3-------|
E-------------5---------------------------------------5----------------------------|
 
								    Guitar Solo 1
G----------------5------------------------------------------------|----------------|
D-5-5-5--------------3--\-3---------------------------------------|----~~----------|
A------------------------------5----3--2--0----------2-3-0\---0\--|--/7~~7-7--7--7-|
E---------5-----------------------------------4~------------------|----------------|


G----------------------------~-----------------------------------------------------|
D----------------------------------------------------------------------------------|
A--0-9--7-7--7-7---0-9---7-7--7-7---0-9--7-7--6-6--5-5--5-5---0-7---5-5--5-5---0-7-|
E----------------------------------------------------------------------------------|


G--------------------------------|
D--------------------------------|
A--5-5--5-5--0-7--5-5--4-4--3-3--|
E--------------------------------|
									      
	                solo teklao                    solo guitarra y teklao
G------------------------------------------|---------------------------------------|
D-------3-------------------------/5--5-5--|---3--\-3---------------------5--\-5-5-|
A-----------3--0--\-0----3--\-3------------|------------0--\-0---3--\-3------------|
E--x\--------------------------------------|---------------------------------------|



G---|------------------------------------------------------------------------------|
D--*|--3--\-3----------------------------------------------------------------------|
A--*|-----------0--\-0---/7-------7-------7--7--7--7---0--2--3--5-/7-8~--7p5-------|
E---|------------------------0-0-----0-0-------------------------------------8-7~~-|
			    			      
                                         coro 3
G|----------------8--8---------------------5------------|
D|-------5-3------------5--5-5-5---------------3--\-3---|
A|---0---------3----------------------------------------|
E|----------------------------------5-------------------|
								    

G-----8--8--------------------5---------------8--8-----------------------5---------|
D-----------/-5---5---------------3--\-3-------------/-5--5-5-5--------------3--\-3|
A--3---------------------------------------3---------------------------------------|
E----------------------5------------------------------------------5----------------|
									 
  _________________ ___________________________________
 |1.		   |2.				       |
G|-----------------|-----------------------------------|| end
D|------5--5-5-5--*|-----~-----------------------------||
A|-3--------------*|--\-5~---3-2-0---3-2-0\---0\-------||
E|-----------------|---------------4-------------------||
       
loko me costo kaleta asike puta sakenla jajaj markolix marcovalenzuela@hotmail.com
Suggest correction
What's this?
You can suggest a correction to this tab. Community and Mods will review your correction and vote to approve or reject it.
comments
We did not receive enough feedback on this tab! Please rate:
print report bad tab
1 2 3 4 5
1 comment total.
0 reply
shadow1422 45 wrote on February 8 2009, 07:48 pm

rly sweet tab, i love the spanish haha. nice gob *****

guest
You may want to rate the tab now too:
select rating
Please do not post tabs as comments. Select "correction" instead!