Oops, an error
Loading. Please wait.

Fullmoon bass

version 3
version 3

Whole song

Interactive

109 views 1 this week
no commentswrite comment
1 2 3 4 5
3 more votes to show rating
add to favorites
×
Save as Personal and add changes to this tab that will be seen only by you. Learn more ›
×
You can save this tab as Personal to edit and correct it or add notes. All changes will be seen only by you. Learn more »
launch autoscroll
font size
0
reset
guitar tuner
edit
Autoscroll
slow
fast
+/-
esc
set tempo
stop
Intro – No Bass – 4x
F#||-----------------------------|---------------------------|----------------------------||
C#||4----------------------------|---------------------------|----------------------------||
G#||4----------------------------|---------------------------|----------------------------||
D#||-----------------------------|---------------------------|----------------------------||

F#|------------------------------|----------------------------|-----------------------------|
C#|------------------------------|----------------------------|-----------------------------|
G#|------------------------------|----------------------------|-----------------------------|
D#|------------------------------|--5------5------5------4----|-5---------------------------|

F#|------------------------------|----------------------------|-----------------------------|
C#|------------------------------|----------------------------|-----------------------------|
G#|------------------------------|----------------------------|-3---------------------------|
D#|-3----------------------------|-1--------------------------|--------------3--------------|

F#|------------------------------|----------------------------|-----------------------------|
C#|------------------------------|----------------------------|-----------------------------|
G#|------------------------------|-3--------------------------|-----------------------------|
D#|-1-------------5--------------|--------------3-------------|-1------------5--------------|

F#|------------------------------|----------------------------|-----------------------------|
C#|------------------------------|----------------------------|-----------------------------|
G#|------------------------------|----------5-7-8---7-5-------|-----------------------------|
D#|-0---0---0---0---0---0---0---0|-5--7--8--------------8--7--|-5--5-5-5--5-5-5--5-5-5--5-5-|

F#|------------------------------|----------------------------|-----------------------------|
C#|------------------------------|----------------------------|-----------------------------|
G#|------------------------------|----------------------------|-----------------------------|
D#|--5--5-5-5--5-5-5--5-5-5--5-5-|-0--5-5-5--5-5-5--5-5-5--5-5|-5--5-5-5--5-5-5--5-5-5--5-5-|

F#|------------------------------|----------------------------|-----------------------------|
C#|------------------------------|----------------------------|-----------------------------|
G#|------------------------------|----------------------------|-----------------------------|
D#|--0--5-5-5--5-5-5--5-5-5--5-5-|-5--5-5-5--5-5-5--5-5-5--5-5|-1---------------------------|

F#|------------------------------|
C#|------------------------------|
G#|------------------------------|
D#|-0--------------1-------------|

Verse 1
F#|------------------------------|----------------------------|-----------------------------|
C#|------------------------------|----------------------------|-----------------------------|
G#|------------------------------|----------------------------|-----------------------------|
D#|--5--5-5-5--5-5-5--5-5-5--5-5-|-5--5-5-5--5-5-5--5-5-5--5-5|-5--5-5-5--5-5-5--5-5-5--5-5-|

F#|-----------------------------|-----------------------------|-----------------------------|
C#|-----------------------------|-----------------------------|-----------------------------|
G#|-----------------------------|-----------------------------|-----------------------------|
D#|-5--5-5-5--5-5-5--5-5-5--5-5-|-1--1-1-1--1-1-1--1-1-1--1-1-|-1--1-1-1--1-1-1--1-1-1--1-1-|

F#|----------------------------|-----------------------------|-----------------------------|
C#|----------------------------|-----------------------------|-----------------------------|
G#|-3--3-3-3--3-3-3--3-3-3--3-3|-----------------------------|-----------------------------|
D#|----------------------------|-3--3-3-3--3-3-3--3-3-3--3-3-|-5--5-5-5--5-5-5--5-5-5--5-5-|

F#|----------------------------|-----------------------------|-----------------------------|
C#|----------------------------|-----------------------------|-----------------------------|
G#|----------------------------|-----------------------------|-----------------------------|
D#|-5--5-5-5--5-5-5--5-5-5--5-5|-5--5-5-5--5-5-5--5-5-5--5-5-|-5--5-5-5--5-5-5--5-5-5--5-5-|


F#|----------------------------|-----------------------------|------------------------------|
C#|----------------------------|-----------------------------|------------------------------|
G#|----------------------------|-----------------------------|-3--3-3-3--3-3-3--3-3-3--3-3--|
D#|-1--1-1-1--1-1-1--1-1-1--1-1|-1--1-1-1--1-1-1--1-1-1--1-1-|------------------------------|

F#|----------------------------|
C#|----------------------------|
G#|----------------------------|
D#|-3--3-3-3--3-3-3--3-3-3--3-3|

Pre-chorus 1
F#|-----------------------------|-----------------------------|-----------------------------|
C#|-----------------------------|-----------------------------|-----------------------------|
G#|-----------------------------|-----------------------------|-3----3---3---3---3---3---3--|
D#|-1-----1---1---1---1---1---1-|-5------5---5---5---5---5---5|-----------------------------|

F#|-----------------------------|-----------------------------|-----------------------------|
C#|-----------------------------|-----------------------------|-----------------------------|
G#|-----------------------------|-----------------------------|-----------------------------|
D#|-3-----3---3---3---3---3---3-|-1-----1---1---1---1---1---1-|-5-----5---5---5---5---5---5-|

F#|-----------------------------|------------------------------|
C#|-----------------------------|------------------------------|
G#|-----------------------------|------------------------------|
D#|-0-----0---0---0---0---0---0-|-0---0---0---0---0---0---0---0|

Chorus 1
F#|----------------------------|-----------------------------|------------------------------|
C#|----------------------------|-----------------------------|------------------------------|
G#|----------------------------|-----------------------------|-3--3-3-3--3-3-3--3-3-3--3-3--|
D#|-5--5-5-5--5-5-5--5-5-3--3-3|-1--1-1-1--1-1-1--1-1-1--1-1-|------------------------------|

F#|----------------------------|-----------------------------|------------------------------|
C#|----------------------------|-----------------------------|------------------------------|
G#|----------------------------|-----------------------------|------------------------------|
D#|-3--3-3-3--3-3-3--3-3-3--3-3|-5--5-5-5--5-5-5--5-5-3--3-3-|-1--1-1-1--1-1-1--1-1-1--1-1--|

F#|----------------------------|-----------------------------|------------------------------|
C#|----------------------------|-----------------------------|------------------------------|
G#|-3--3-3-3--3-3-3--3-3-3--3-3|-----------------------------|------------------------------|
D#|----------------------------|-3--3-3-3--3-3-3--3-3-3--3-3-|-5--5-5-5--5-5-5--5-5-5--5-5--|

F#|----------------------------|-----------------------------|------------------------------|
C#|----------------------------|-----------------------------|------------------------------|
G#|----------------------------|-3--3-3-3--3-3-3--3-3-3--3-3-|------------------------------|
D#|-1--1-1-1--1-1-1--1-1-1--1-1|-----------------------------|-3--3-3-3--3-3-3--3-3-3--3-3--|

F#|----------------------------|-----------------------------|------------------------------|
C#|----------------------------|-----------------------------|------------------------------|
G#|----------------------------|-----------------------------|-5--5-5-5--5-5-5--5-5-5--5-5--|
D#|-5--5-5-5--5-5-5--5-5-3--3-3|-1--1-1-1--1-1-1--1-1-1--1-1-|------------------------------|

F#|----------------------------|
C#|----------------------------|
G#|-3-----2\-------------------|
D#|-------------3--3-----------|

Verse 2
F#|-----------------------------|-----------------------------|-----------------------------|
C#|-----------------------------|-----------------------------|-----------------------------|
G#|-----------------------------|-----------------------------|-----------------------------|
D#|-5--5-5-5--5-5-5--5-5-5--5-5-|-5--5-5-5--5-5-5--5-5-5--5-5-|-5--5-5-5--5-5-5--5-5-5--5-5-|

F#|-----------------------------|-----------------------------|-----------------------------|
C#|-----------------------------|-----------------------------|-----------------------------|
G#|-----------------------------|-----------------------------|-----------------------------|
D#|-5--5-5-5--5-5-5--5-5-5--5-5-|-1--1-1-1--1-1-1--1-1-1--1-1-|-1--1-1-1--1-1-1--1-1-1--1-1-|

F#|-----------------------------|-----------------------------|-----------------------------|
C#|-----------------------------|-----------------------------|-----------------------------|
G#|-3--3-3-3--3-3-3--3-3-3--3-3-|-----------------------------|-----------------------------|
D#|-----------------------------|-3--3-3-3--3-3-3--3-3-3--3-3-|-5--5-5-5--5-5-5--5-5-5--5-5-|

F#|-----------------------------|-----------------------------|-----------------------------|
C#|-----------------------------|-----------------------------|-----------------------------|
G#|-----------------------------|-----------------------------|-----------------------------|
D#|-5--5-5-5--5-5-5--5-5-5--5-5-|-5--5-5-5--5-5-5--5-5-5--5-5-|-5--5-5-5--5-5-5--5-5-5--5-5-|

F#|-----------------------------|-----------------------------|-----------------------------|
C#|-----------------------------|-----------------------------|-----------------------------|
G#|-----------------------------|-----------------------------|-3--3-3-3--3-3-3--3-3-3--3-3-|
D#|-1--1-1-1--1-1-1--1-1-1--1-1-|-1--1-1-1--1-1-1--1-1-1--1-1-|-----------------------------|

F#|-----------------------------|
C#|-----------------------------|
G#|-----------------------------|
D#|-3--3-3-3--3-3-3--3-3-3--3-3-|

Pre-Chorus 2
F#|------------------------------|----------------------------|-----------------------------|
C#|------------------------------|----------------------------|-----------------------------|
G#|------------------------------|----------------------------|-3------3---3---3---3---3---3|
D#|-1------1---1---1---1---1---1-|-5-----5---5---5---5---5---5|-----------------------------|

F#|------------------------------|----------------------------|-----------------------------|
C#|------------------------------|----------------------------|-----------------------------|
G#|------------------------------|----------------------------|-----------------------------|
D#|-3------3---3---3---3---3---3-|-1-----1---1---1---1---1---1|-5------5---5---5---5---5---5|

F#|------------------------------|----------------------------|
C#|------------------------------|----------------------------|
G#|------------------------------|----------------------------|
D#|-0------0---0---0---0---0---0-|-0-----0---0---0---0---0---0|

Chorus 2
F#|-----------------------------|-----------------------------|-----------------------------|
C#|-----------------------------|-----------------------------|-----------------------------|
G#|-----------------------------|-----------------------------|-3--3-3-3--3-3-3--3-3-3--3-3-|
D#|-5--5-5-5--5-5-5--5-5-3--3-3-|-1--1-1-1--1-1-1--1-1-1--1-1-|-----------------------------|

F#|-----------------------------|-----------------------------|-----------------------------|
C#|-----------------------------|-----------------------------|-----------------------------|
G#|-----------------------------|-----------------------------|-----------------------------|
D#|-3--3-3-3--3-3-3--3-3-3--3-3-|-5--5-5-5--5-5-5--5-5-3--3-3-|-1--1-1-1--1-1-1--1-1-1--1-1-|

F#|-----------------------------|-----------------------------|-----------------------------|
C#|-----------------------------|-----------------------------|-----------------------------|
G#|-3--3-3-3--3-3-3--3-3-3--3-3-|-----------------------------|-----------------------------|
D#|-----------------------------|-3--3-3-3--3-3-3--3-3-3--3-3-|-5--5-5-5--5-5-5--5-5-3--3-3-|

F#|-----------------------------|-----------------------------|-----------------------------|
C#|-----------------------------|-----------------------------|-----------------------------|
G#|-----------------------------|-3--3-3-3--3-3-3--3-3-3--3-3-|-----------------------------|
D#|-1--1-1-1--1-1-1--1-1-1--1-1-|-----------------------------|-3--3-3-3--3-3-3--3-3-3--3-3-|

F#|-----------------------------|-----------------------------|-----------------------------|
C#|-----------------------------|-----------------------------|-----------------------------|
G#|-----------------------------|-----------------------------|-5--5-5-5--5-5-5--5-5-5--5-5-|
D#|-5--5-5-5--5-5-5--5-5-3--3-3-|-1--1-1-1--1-1-1--1-1-1--1-1-|-----------------------------|

F#|-----------------------------|-----------------------------|
C#|-----------------------------|-----------------------------|
G#|-3-----2\----0---------3---2-|-----------------------------|
D#|---------------3-------------|--5----------5---------------|

Guitar solo
F#|----------------------------|-----------------------------|------------------------------|
C#|----------------------------|-----------------------------|------------------------------|
G#|----------------------------|-----------------------------|------------------------------|
D#|--5-----------5-------3-3-3-|--5-----------5--------------|--5------------5--------3-3-3-|

F#|----------------------------|-----------------------------|------------------------------|
C#|----------------------------|-----------------------------|------------------------------|
G#|----------------------------|-----------------------------|------------------------------|
D#|--5-----------5-------------|--5-----------5--------3-3-3-|-1----------------------------|

F#|----------------------------|-----------------------------|------------------------------|
C#|--2-------------------------|-----------------------------|------------------------------|
G#|----------------------------|-----------------------------|------------------------------|
D#|---------------0------------|--5-----------5--------------|--5------------5--------3-3-3-|

F#|----------------------------|-----------------------------|------------------------------|
C#|----------------------------|-----------------------------|------------------------------|
G#|----------------------------|-----------------------------|------------------------------|
D#|--5------------5------------|--5-----------5--------3-3-3-|-1---1---1---3---3---3---5---5|

F#|----------------------------|-----------------------------|------------------------------|
C#|----------------------------|-----------------------------|------------------------------|
G#|---2---2---2---3---3---5---5|-----------------------------|------------------------------|
D#|-5--------------------------|-3---3---3---3---3---3---3--3|-3---3---3---3---3---3---3---3|

Keyboard solo 
F#|----------------------------|-----------------------------|------------------------------|
C#|----------------------------|-----------------------------|------------------------------|
G#|----------------------------|-----------------------------|-3--3-3-3--3-3-3--3-3-3--3-3--|
D#|-1--1-1-1--1-1-1--1-1-1--1-1|-5--5-5-5--5-5-5--5-5-5--5-5-|------------------------------|

F#|----------------------------|-----------------------------|------------------------------|
C#|----------------------------|-----------------------------|------------------------------|
G#|----------------------------|-----------------------------|------------------------------|
D#|-3--3-3-3--3-3-3--3-3-3--3-3|-1--1-1-1--1-1-1--1-1-1--1-1-|-5--5-5-5--5-5-5--5-5-5--5-5--|

F#|----------------------------|-----------------------------|------------------------------|
C#|----------------------------|-----------------------------|------------------------------|
G#|-3--3-3-3--3-3-3--3-3-3--3-3|-----------------------------|------------------------------|
D#|----------------------------|-3--3-3-3--3-3-3--3-3-3--3-3-|-1--1-1-1--1-1-1--1-1-1--1-1--|


Harmonic solo
F#|----------------------------|-----------------------------|------------------------------|
C#|----------------------------|-----------------------------|------------------------------|
G#|----------------------------|-3--3-3-3--3-3-3--3-3-3--3-3-|------------------------------|
D#|-5--5-5-5--5-5-5--5-5-5--5-5|-----------------------------|-3--3-3-3--3-3-3--3-3-3--3-3--|

F#|----------------------------|-----------------------------|------------------------------|
C#|----------------------------|-----------------------------|------------------------------|
G#|----------------------------|-----------------------------|------------------------------|
D#|-1--1-1-1--1-1-1--1-1-1--1-1|-5--5-5-5--5-5-5--5-5-5--5-5-|-0-----------0---0-----0---0--|

F#|----------------------------|-----------------------------|------------------------------|
C#|----------------------------|-----------------------------|------------------------------|
G#|----------------------------|------------------------5--7-|-8--------7--5----------------|
D#|-0--------0---0---0---0---0-|--5----7----8----------------|---------------8--------7\----|

Chorus 3
F#|----------------------------|-----------------------------|------------------------------|
C#|----------------------------|-----------------------------|------------------------------|
G#|----------------------------|-----------------------------|-3--3-3-3--3-3-3--3-3-3--3-3--|
D#|----/5--5--5-5-5--5-5-3--3-3|-1--1-1-1--1-1-1--1-1-1--1-1-|------------------------------|

F#|----------------------------|-----------------------------|------------------------------|
C#|----------------------------|-----------------------------|------------------------------|
G#|----------------------------|-----------------------------|------------------------------|
D#|-3--3-3-3--3-3-3--3-3-3--3-3|-5--5-5-5--5-5-5--5-5-3--3-3-|-1--1-1-1--1-1-1--1-1-1--1-1--|

F#|----------------------------|-----------------------------|------------------------------|
C#|----------------------------|-----------------------------|------------------------------|
G#|-3--3-3-3--3-3-3--3-3-3--3-3|-----------------------------|------------------------------|
D#|----------------------------|-5--5-5-5--5-5-5--5-5-3--3-3-|-1--1-1-1--1-1-1--1-1-1--1-1--|

F#|----------------------------|-----------------------------|------------------------------|
C#|----------------------------|-----------------------------|------------------------------|
G#|-3--3-3-3--3-3-3--3-3-3--3-3|-----------------------------|------------------------------|
D#|----------------------------|-3--3-3-3--3-3-3--3-3-3--3-3-|-5--5-5-5--5-5-5--5-5-3--3-3--|

F#|----------------------------|-----------------------------|------------------------------|
C#|----------------------------|-----------------------------|------------------------------|
G#|----------------------------|-3--3-3-3--3-3-3--3-3-3--3-3-|------------------------------|
D#|-1--1-1-1--1-1-1--1-1-1--1-1|-----------------------------|-3--3-3-3--3-3-3--3-3-3--3-3--|

Chorus 4
F#|----------------------------|-----------------------------|------------------------------|
C#|----------------------------|-----------------------------|------------------------------|
G#|----------------------------|-----------------------------|-3--3-3-3--3-3-3--3-3-3--3-3--|
D#|-5--5-5-5--5-5-5--5-5-3--3-3|-1--1-1-1--1-1-1--1-1-1--1-1-|------------------------------|

F#|----------------------------|-----------------------------|------------------------------|
C#|----------------------------|-----------------------------|------------------------------|
G#|----------------------------|-----------------------------|------------------------------|
D#|-3--3-3-3--3-3-3--3-3-3--3-3|-5--5-5-5--5-5-5--5-5-3--3-3-|-1--1-1-1--1-1-1--1-1-1--1-1--|

F#|----------------------------|-----------------------------|------------------------------|
C#|----------------------------|-----------------------------|------------------------------|
G#|-3--3-3-3--3-3-3--3-3-3--3-3|-----------------------------|------------------------------|
D#|----------------------------|-5--5-5-5--5-5-5--5-5-3--3-3-|-1--1-1-1--1-1-1--1-1-1--1-1--|

F#|----------------------------|-----------------------------|------------------------------|
C#|----------------------------|-----------------------------|------------------------------|
G#|-3--3-3-3--3-3-3--3-3-3--3-3|-----------------------------|------------------------------|
D#|----------------------------|-3--3-3-3--3-3-3--3-3-3--3-3-|-1--1-1-1--1-1-1--1-1-1--1-1--|

F#|----------------------------|
C#|----------------------------|
G#|-5--5-5-5--5-5-5--5-5-5--5-5|
D#|----------------------------|



Outro
F#|-------------------------------|------------------------------|
C#|3------------------------------|-4----------------------------|
G#|4--3----2----0---------3----2--|-4-0------------0-------------|
D#|------------------4------------|------------------------------|


            
            
Suggest correction
Creating personal tab
Creating personal tab
You can edit any tab online and save it as your Personal.

You can edit, replace or remove any tab part or add personal notes – all changes will be seen only by you.

Personal tabs can be accessed anytime from any device, even offline.
Learn more »
Give kudos to tab author, rate the tab!
1 2 3 4 5
comments
print report bad tab
guest
You may want to rate the tab now too:
select rating
Wanna post a correction for this tab? Suggest correction