Oops, an error
Loading. Please wait.

Fullmoon Tab

version 3
version 3

Whole song

Interactive

389 views 3 this week
no commentswrite comment
1 2 3 4 5
3 more votes to show rating
add to favorites
×
Save as Personal and add changes to this tab that will be seen only by you. Learn more ›
×
You can save this tab as Personal to edit and correct it or add notes. All changes will be seen only by you. Learn more »
save as personal
new!
launch autoscroll
font size
0
reset
how to read this tab
guitar tuner
Autoscroll
slow
fast
+/-
esc
set tempo
stop
Author
Tuning
D# G# C# F# A# D#
W                   W                   W                 
D#|-------------------|-------------------|-------------------|
A#|-------------------|-------------------|-------------------|
F#|-------------------|-------------------|-------------------|
C#|-------------------|-------------------|-------------------|
G#|-------------------|-------------------|-------------------|
D#|-------------------|-------------------|-------------------|


     W                   W                   W                   W                 
D#|-------------------|-------------------|-------------------|-------------------|
A#|-------------------|-------------------|-------------------|-------------------|
F#|-------------------|-------------------|-------------------|-------------------|
C#|-------------------|-------------------|-------------------|-------------------|
G#|-------------------|-------------------|-------------------|-------------------|
D#|-------------------|-------------------|-------------------|-------------------|


     W                   W                   W                   W                 
D#|-------------------|-------------------|-------------------|-------------------|
A#|-------------------|-------------------|-------------------|-------------------|
F#|-------------------|-------------------|-------------------|-------------------|
C#|-------------------|-------------------|-------------------|-------------------|
G#|-------------------|-------------------|-------------------|-------------------|
D#|-------------------|-------------------|-------------------|-------------------|


     W                   W                   W                   W                 
D#|-------------------|-------------------|-------------------|-------------------|
A#|-------------------|-------------------|-------------------|-------------------|
F#|-------------------|-------------------|-------------------|-------------------|
C#|-------------------|-------------------|-------------------|-------------------|
G#|-------------------|-------------------|-------------------|-------------------|
D#|-------------------|-------------------|-------------------|-------------------|


     W                   W                   W                   W                 
D#|-------------------|-------------------|-------------------|-------------------|
A#|-------------------|-------------------|-------------------|-------------------|
F#|-------------------|-------------------|-------------------|-------------------|
C#|-------------------|-------------------|-------------------|-------------------|
G#|-------------------|-------------------|-------------------|-------------------|
D#|-------------------|-------------------|-------------------|-------------------|


     W                   W                   W                   W                 
D#|-------------------|-------------------|-------------------|-------------------|
A#|-------------------|-------------------|-------------------|-------------------|
F#|-------------------|-------------------|-------------------|-------------------|
C#|-------------------|-------------------|-------------------|-------------------|
G#|-------------------|-------------------|-------------------|-------------------|
D#|-------------------|-------------------|-------------------|-------------------|


     E  E  S. E  T E  T S. E  T S.    T S. E  S. E  E  E  E  E  T  
D#|--------------------------------|------------------------------|
A#|-----------3----1--L-------1----|--1----------1--0--------0----|
F#|--------2---------------2-------|----------2-----------1-------|
C#|-----3---------------3----------|-------2-----------2----------|
G#|--------------------------------|------------------------------|
D#|--------------------------------|------------------------------|


     Q    E  E  E.  T Q    T    Q    Q    Q    Q       Q    E.  T Q    Q    T  
D#|-------0------------------|--5-------------------|-------------------------|
A#|----------1---------------|----------------------|-------0---L-3----0----L-|
F#|-------------2---L--------|------------5---------|-------------------------|
C#|-------------------2----L-|-------7---------7----|--5----------------------|
G#|--------------------------|----------------------|-------------------------|
D#|--------------------------|----------------------|-------------------------|


     W                   W                   W                   W                 
D#|--3----------------|-------------------|-------------------|-------------------|
A#|-------------------|-------------------|-------------------|-------------------|
F#|-------------------|-------------------|-------------------|--5----------------|
C#|-------------------|--3----------------|--L----------------|--5----------------|
G#|-------------------|--3----------------|--L----------------|--3----------------|
D#|-------------------|--1----------------|--L----------------|-------------------|


     W                   W                   W                   W                 
D#|-------------------|-------------------|-------------------|-------------------|
A#|-------------------|-------------------|-------------------|-------------------|
F#|-------------------|-------------------|--2----------------|--5----------------|
C#|--5----------------|--3----------------|--2----------------|--5----------------|
G#|--5----------------|--3----------------|--0----------------|--3----------------|
D#|--3----------------|--1----------------|-------------------|-------------------|


     W                   W                   W                   W                 
D#|-------------------|-------------------|-------------------|-------------------|
A#|-------------------|-------------------|-------------------|-------------------|
F#|-------------------|-------------------|--2----------------|-------------------|
C#|--5----------------|--3----------------|--2----------------|--2----------------|
G#|--5----------------|--3----------------|--0----------------|--2----------------|
D#|--3----------------|--1----------------|-------------------|-------------------|


     W                   Q    Q    Q    E  S S    Q.     S S Q    Q     
D#|-------------------|------------------------|-----------------------|
A#|-------------------|------------------------|-----------------------|
F#|-------------------|------------------------|--5--------------------|
C#|--L----------------|--2----4----5----0--2---|--3------2-0-----------|
G#|--L----------------|--0----2----3-----------|-------------3----2----|
D#|-------------------|------------------------|-----------------------|


     S S S S S S S S S S S S S S S S    S S S S S S S S S S S S S S S S  
D#|----------------------------------|----------------------------------|
A#|----------------------------------|----------------------------------|
F#|----------------------------------|----------------------------------|
C#|----------------------------------|----------------------------------|
G#|--0---0-0-0---0-0-0---0-0-0---0-0-|--0---0-0-0---0-0-0---0-0-0---0-0-|
D#|----------------------------------|----------------------------------|


     S S S S S S S S S S S S S S S S    S S S S S S S S S S S S S S S S  
D#|----------------------------------|----------------------------------|
A#|----------------------------------|----------------------------------|
F#|----------------------------------|----------------------------------|
C#|----------------------------------|----------------------------------|
G#|--0---0-0-0---0-0-0---0-0-0---0-0-|--0---0-0-0---0-0-0---0-0-0---0-0-|
D#|----------------------------------|----------------------------------|


     S S S S S S S S S S S S S S S S    S S S S S S S S S S S S S S S S  
D#|----------------------------------|----------------------------------|
A#|----------------------------------|----------------------------------|
F#|----------------------------------|----------------------------------|
C#|----------------------------------|----------------------------------|
G#|--0---0-0-0---0-0-0---0-0-0---0-0-|--0---0-0-0---0-0-0---0-0-0---0-0-|
D#|----------------------------------|----------------------------------|


     W                   H          H           Q    S S S S S S S S S S S S  
D#|-------------------|----------------------|-------------------------------|
A#|-------------------|----------------------|-------------------------------|
F#|--5----------------|--4--------<>1--------|-------------------------------|
C#|--3----------------|--2-------------------|--2----2-----------------------|
G#|-------------------|----------------------|--0----0---0-0-0---0-0-0---0-0-|
D#|-------------------|----------------------|-------------------------------|


     S S S S S S S S S S S S S S S S    S S S S S S S S S S S S S S S S  
D#|----------------------------------|----------------------------------|
A#|----------------------------------|----------------------------------|
F#|----------------------------------|----------------------------------|
C#|----------------------------------|----------------------------------|
G#|--0---0-0-0---0-0-0---0-0-0---0-0-|--0---0-0-0---0-0-0---0-0-0---0-0-|
D#|----------------------------------|----------------------------------|


     S S S S S S S S S S S S S S S S    H.           E  S S  
D#|----------------------------------|----------------------|
A#|----------------------------------|----------------------|
F#|----------------------------------|----------------------|
C#|----------------------------------|--3------------L------|
G#|--0---0-0-0---0-0-0---0-0-0---0-0-|--3------------L------|
D#|----------------------------------|--1------------L--1-1-|


     H.           E  S S    H.           E  S S    H        H         
D#|----------------------|----------------------|--------------------|
A#|----------------------|----------------------|--------------------|
F#|----------------------|----------------------|-----------7--------|
C#|--3------------L------|--5------------L------|-----------5--------|
G#|--3------------L------|--3------------L--3-3-|--5-----------------|
D#|--1------------L--1-1-|----------------------|--3-----------------|


     Q    S S S S S S S S S S S S    S S S S S S S S S S S S S S S S  
D#|-------------------------------|----------------------------------|
A#|-------------------------------|----------------------------------|
F#|-------------------------------|----------------------------------|
C#|--2----2-----------------------|----------------------------------|
G#|--0----0---0-0-0---0-0-0---0-0-|--0---0-0-0---0-0-0---0-0-0---0-0-|
D#|-------------------------------|----------------------------------|


     S S S S S S S S S S S S S S S S    S S S S S S S S S S S S S S S S  
D#|----------------------------------|----------------------------------|
A#|----------------------------------|----------------------------------|
F#|----------------------------------|----------------------------------|
C#|----------------------------------|----------------------------------|
G#|--0---0-0-0---0-0-0---0-0-0---0-0-|--0---0-0-0---0-0-0---0-0-0---0-0-|
D#|----------------------------------|----------------------------------|


     H.           E  S S    H.           E  S S    H.           E  S S  
D#|----------------------|----------------------|----------------------|
A#|----------------------|----------------------|----------------------|
F#|----------------------|----------------------|----------------------|
C#|--3------------L------|--3------------L------|--5------------L------|
G#|--3------------L------|--3------------L------|--3------------L--3-3-|
D#|--1------------L--1-1-|--1------------L--1-1-|----------------------|


     H        H           Q    S S H        S S    Q    S S H        S S  
D#|--------------------|------------------------|------------------------|
A#|--------------------|------------------------|------------------------|
F#|-----------7--------|------------------------|------------------------|
C#|-----------5--------|--3--------3------------|--2--------2------------|
G#|--5-----------------|--3--------3------------|--0----0-0-0--------0-0-|
D#|--3-----------------|--1----1-1-1--------1-1-|------------------------|


     Q    S S H        E     Q.     S S H           Q    S S H        S S  
D#|-----------------------|----------------------|------------------------|
A#|-----------------------|---------3---3--------|------------------------|
F#|-----------------------|---------0---0--------|------------------------|
C#|--5--------5--------L--|----------------------|--3--------3------------|
G#|--3----3-3-3--------L--|--5-------------------|--3--------3------------|
D#|-----------------------|--3-------------------|--1----1-1-1--------1-1-|


     Q    S S H        S S    Q    S S S S Q    S S S S  
D#|------------------------|----------------------------|
A#|------------------------|----------------------------|
F#|------------------------|----------------------------|
C#|--2--------2------------|--2------------2------------|
G#|--0----0-0-0--------0-0-|--2------------2------------|
D#|------------------------|--0----0---0---0----0---0---|


     Q    S S S S S S S S S S S S    H.           Q       W                 
D#|-------------------------------|--------------------|-------------------|
A#|-------------------------------|--------------------|-------------------|
F#|-------------------1-----------|--2-----------------|--5----------------|
C#|--2------------2-3---3-2-0-----|--2-----------------|--3----------------|
G#|--2------------------------3-2-|--0-----------------|--3----------------|
D#|--0----0---0-------------------|---------------3----|-------------------|


     Q    H.              Q.     H        E     Q    H        Q     
D#|--------------------|---------------------|---------------------|
A#|-------8------------|--3------3--------L--|-------5-------------|
F#|--5----L------------|--0------0--------L--|--2----L-------------|
C#|--5----L------------|--0------0-----------|--2----L-------------|
G#|--3----L------------|---------------------|--0----L-------------|
D#|--------------------|---------------------|----------------3----|


     Q    E  H        E     W                   Q.     H        E   
D#|----------------------|-------------------|---------------------|
A#|----------------------|-------------------|--3------3--------L--|
F#|--5-------5--------L--|--5----------------|--0------0--------L--|
C#|--3-------3--------L--|--5----------------|--0------0-----------|
G#|--3-------3--------L--|--3----------------|---------------------|
D#|----------------------|-------------------|---------------------|


     Q    H        Q       W                   W                 
D#|---------------------|-------------------|-------------------|
A#|-------5-------------|-------------------|-------------------|
F#|--2----L-------------|--5----------------|--5----------------|
C#|--2----L-------------|--3----------------|--5----------------|
G#|--0----L-------------|--3----------------|--3----------------|
D#|----------------3----|-------------------|-------------------|


     Q.     H        E     Q    H        Q       Q    E  H        E   
D#|---------------------|---------------------|----------------------|
A#|--3------3--------3--|-------5-------------|----------------------|
F#|--0------0--------0--|--2----L-------------|--5-------5--------L--|
C#|--0------0--------0--|--2----L-------------|--3-------3--------L--|
G#|---------------------|--0----L-------------|--3-------3--------L--|
D#|---------------------|----------------3----|----------------------|


     W                   E.  E  S S S Q    Q       Q    S S S S S S S S S S S S  
D#|-------------------|-------------------------|-------------------------------|
A#|-------------------|-------------------------|-------------------------------|
F#|--2----------------|-------------------------|-------------------------------|
C#|--0----------------|--5---4------------------|--2----2-----------------------|
G#|-------------------|--3---2----5---5---------|--0----0---0-0-0---0-0-0---0-0-|
D#|-------------------|-----------3---3---------|-------------------------------|


     S S S S S S S S S S S S S S S S    S S S S S S S S S S S S S S S S  
D#|----------------------------------|----------------------------------|
A#|----------------------------------|----------------------------------|
F#|----------------------------------|----------------------------------|
C#|----------------------------------|----------------------------------|
G#|--0---0-0-0---0-0-0---0-0-0---0-0-|--0---0-0-0---0-0-0---0-0-0---0-0-|
D#|----------------------------------|----------------------------------|


     S S S S S S S S S S S S S S S S    H.           E  S S  
D#|----------------------------------|----------------------|
A#|----------------------------------|----------------------|
F#|----------------------------------|----------------------|
C#|----------------------------------|--3------------L------|
G#|--0---0-0-0---0-0-0---0-0-0---0-0-|--3------------L------|
D#|----------------------------------|--1------------L--1-1-|


     H.           E  S S    H.           E  S S    H        H         
D#|----------------------|----------------------|--------------------|
A#|----------------------|----------------------|--------------------|
F#|----------------------|----------------------|-----------7--------|
C#|--3------------L------|--5------------L------|-----------5--------|
G#|--3------------L------|--3------------L--3-3-|--5-----------------|
D#|--1------------L--1-1-|----------------------|--3-----------------|


     Q    S S S S S S S S S S S S    S S S S S S S S S S S S S S S S  
D#|-------------------------------|----------------------------------|
A#|-------------------------------|----------------------------------|
F#|-------------------------------|----------------------------------|
C#|--2----2-----------------------|----------------------------------|
G#|--0----0---0-0-0---0-0-0---0-0-|--0---0-0-0---0-0-0---0-0-0---0-0-|
D#|-------------------------------|----------------------------------|


     S S S S S S S S S S S S S S S S    S S S S S S S S S S S S S S S S  
D#|----------------------------------|----------------------------------|
A#|----------------------------------|----------------------------------|
F#|----------------------------------|----------------------------------|
C#|----------------------------------|----------------------------------|
G#|--0---0-0-0---0-0-0---0-0-0---0-0-|--0---0-0-0---0-0-0---0-0-0---0-0-|
D#|----------------------------------|----------------------------------|


     H.           E  S S    H.           E  S S    H.           E  S S  
D#|----------------------|----------------------|----------------------|
A#|----------------------|----------------------|----------------------|
F#|----------------------|----------------------|----------------------|
C#|--3------------L------|--3------------L------|--5------------L------|
G#|--3------------L------|--3------------L------|--3------------L--3-3-|
D#|--1------------L--1-1-|--1------------L--1-1-|----------------------|


     H        H           Q    S S H        S S    Q    S S H        S S  
D#|--------------------|------------------------|------------------------|
A#|--------------------|------------------------|------------------------|
F#|-----------7--------|------------------------|------------------------|
C#|-----------5--------|--3--------3------------|--2--------2------------|
G#|--5-----------------|--3--------3------------|--0----0-0-0--------0-0-|
D#|--3-----------------|--1----1-1-1--------1-1-|------------------------|


     Q    S S H        E     Q.     S S H           Q    S S H        S S  
D#|-----------------------|----------------------|------------------------|
A#|-----------------------|---------3---3--------|------------------------|
F#|-----------------------|---------0---0--------|------------------------|
C#|--5--------5--------L--|----------------------|--3--------3------------|
G#|--3----3-3-3--------L--|--5-------------------|--3--------3------------|
D#|-----------------------|--3-------------------|--1----1-1-1--------1-1-|


     Q    S S H        S S    Q    S S S S Q    S S S S  
D#|------------------------|----------------------------|
A#|------------------------|----------------------------|
F#|------------------------|----------------------------|
C#|--2--------2------------|--2------------2------------|
G#|--0----0-0-0--------0-0-|--2------------2------------|
D#|------------------------|--0----0---0---0----0---0---|


     Q    S S S S S S S S S S S S    H.           Q       W                 
D#|-------------------------------|--------------------|-------------------|
A#|-------------------------------|--------------------|-------------------|
F#|-------------------1-----------|--2-----------------|--5----------------|
C#|--2------------2-3---3-2-0-----|--2-----------------|--3----------------|
G#|--2------------------------3-2-|--0-----------------|--3----------------|
D#|--0----0---0-------------------|---------------3----|-------------------|


     Q    H.              Q.     H        E     Q    H        Q     
D#|--------------------|---------------------|---------------------|
A#|-------8------------|--3------3--------L--|-------5-------------|
F#|--5----L------------|--0------0--------L--|--2----L-------------|
C#|--5----L------------|--0------0-----------|--2----L-------------|
G#|--3----L------------|---------------------|--0----L-------------|
D#|--------------------|---------------------|----------------3----|


     Q    E  H        E     W                   Q.     H        E   
D#|----------------------|-------------------|---------------------|
A#|----------------------|-------------------|--3------3--------L--|
F#|--5-------5--------L--|--5----------------|--0------0--------L--|
C#|--3-------3--------L--|--5----------------|--0------0-----------|
G#|--3-------3--------L--|--3----------------|---------------------|
D#|----------------------|-------------------|---------------------|


     Q    H        Q       W                   W                 
D#|---------------------|-------------------|-------------------|
A#|-------5-------------|-------------------|-------------------|
F#|--2----L-------------|--5----------------|--5----------------|
C#|--2----L-------------|--3----------------|--5----------------|
G#|--0----L-------------|--3----------------|--3----------------|
D#|----------------3----|-------------------|-------------------|


     Q.     H        E     Q    H        Q       Q    E  H        E   
D#|---------------------|---------------------|----------------------|
A#|--3------3--------3--|-------5-------------|----------------------|
F#|--0------0--------0--|--2----L-------------|--5-------5--------L--|
C#|--0------0--------0--|--2----L-------------|--3-------3--------L--|
G#|---------------------|--0----L-------------|--3-------3--------L--|
D#|---------------------|----------------3----|----------------------|


     W                   E.  E  S S S Q    E  S S    Q    E  E  Q    Q     
D#|-------------------|---------------------------|-----------------------|
A#|-------------------|---------------------------|-----------------------|
F#|--2----------------|---------------------------|--2-------2-------2----|
C#|--0----------------|---------------------------|--2-------2-------2----|
G#|-------------------|--3---2----0-----------3-2-|--0-------0-------0----|
D#|-------------------|---------------4-----------|-----------------------|


     Not sure about this note (4)                                            
     Q.                           E  E  E  E  E     E  E  E  E  E  E  E  E   
D#|-------------------------------7--7-----------|--------5--5--------------|
A#|-------------------------------------5--------|-----------------8-----8--|
F#|--4-------------------------------------------|-----7--------------------|
C#|----------------------------------------7--5--|--L-----------------------|
G#|----------------------------------------------|--------------------------|
D#|----------------------------------------------|--------------------------|


     E   E   H.               E.   S E   E   E.   S E   E     H.            Q     
D#|-----------------------|-----------------12-------------|---------------------|
A#|--L--12--10------------|--10---12-L--13-------13-L--12--|---------------------|
F#|-----------------------|--------------------------------|--9~------------9----|
C#|-----------------------|--------------------------------|---------------------|
G#|-----------------------|--------------------------------|---------------------|
D#|-----------------------|--------------------------------|---------------------|


                                                    Slide                
     H          H           E  Q    E  Q    Q       Q.      E  H         
D#|----------------------|-----------------------|----------------------|
A#|----------------------|-----------------------|----------------------|
F#|--7--------<>5--------|-----5----4--L----0----|--2------14--L--------|
C#|----------------------|-----------------------|----------------------|
G#|----------------------|-----------------------|----------------------|
D#|----------------------|-----------------------|----------------------|


         Slide 2x                                               
     E   E       Q     H            E   E  E   E  Q     E   E   
D#|-----------------------------|------------------------------|
A#|-----------------------------|------12-----13--L------------|
F#|--L--14-------2----14--------|--14------------------14--12--|
C#|-----------------------------|------------------------------|
G#|-----------------------------|------------------------------|
D#|-----------------------------|------------------------------|


     Q     E   E   Q     Q        Q.     E  Q     Q       E   Q.     Q     Q     
D#|---------------------------|------------------------|------------------------|
A#|---------------------------|------------------------|------------------------|
F#|--L----14--14---L----14----|--10------9--L----------|-----10------9----------|
C#|---------------------------|------------------10----|--L---------------10----|
G#|---------------------------|------------------------|------------------------|
D#|---------------------------|------------------------|------------------------|


                        |-----5----|  |----5----|  
   S S  S  S S  S S  S  S  S  S S  S  S S  S S  S  
--------------------------------------------------|
--------------------------------------------------|
----------------------------------------9-10-9----|
--------------------------------9-10-12--------12-|
-------------8----8-10-12-10-12-------------------|
--10-8-10-12---12---------------------------------|


   |----5----|  |-----5-----|  |-----5-----|  |-----5-----|  
   S S  S  S S  S  S  S  S  S  S  S  S  S  S  S  S  S  S  S  
------------------------------10-12-13-12-10----------------|
---------------------10-12-13----------------13-12-10-------|
-------------9-10-12----------------------------------12-10-|
--10-9-10-12------------------------------------------------|
------------------------------------------------------------|
------------------------------------------------------------|


     Q    E  Q.     Q       Q    E  Q.     Q       Q    E  Q.     Q     
D#|----------------------|----------------------|----------------------|
A#|----------------------|----------------------|----------------------|
F#|--5-------------------|----------------------|----------------------|
C#|--3-------3------3----|--2-------2------2----|--5-------5------5----|
G#|----------3------3----|--0-------0------0----|--3-------3------3----|
D#|----------1------1----|----------------------|----------------------|


     Q    E  Q.     Q       Q    E  Q.     Q       Q    E  Q.     Q     
D#|----------------------|----------------------|----------------------|
A#|--3-------3------3----|----------------------|----------------------|
F#|--0-------0------0----|----------------------|----------------------|
C#|----------------------|--3-------3------3----|--2-------2------2----|
G#|----------------------|--3-------3------3----|--0-------0------0----|
D#|----------------------|--1-------1------1----|----------------------|


     Q    E  Q.     Q       Q    E  Q.     Q       Q    E  Q.     Q     
D#|----------------------|----------------------|----------------------|
A#|----------------------|--3-------3------3----|----------------------|
F#|----------------------|--0-------0------0----|--5-------5------5----|
C#|--5-------5------5----|----------------------|--3-------3------3----|
G#|--3-------3------3----|----------------------|----------------------|
D#|----------------------|----------------------|----------------------|


     H        S  S  S  S  S  S  S  S  
D#|----------------------------10-12-|
A#|-------------------10-12-13-------|
F#|-----------9-10-12----------------|
C#|----------------------------------|
G#|----------------------------------|
D#|----------------------------------|


      S  S  S  S  S  S S  S  S  S S  S S  S  S S     S S  S  S S  S S  S H         
D#|--13-12-10------------------------------------|--------------------------------|
A#|-----------13-12-10-9-10-12-10-9--------------|--------------------------------|
F#|---------------------------------10-9---------|-------------9-10-9----9--------|
C#|--------------------------------------12-10-9-|-----9-10-12--------12----------|
G#|----------------------------------------------|--12----------------------------|
D#|----------------------------------------------|--------------------------------|


     H         S  S S  S Q       H        S  S  S S  Q     
D#|-----------12-10-8----8----|-----------8---------------|
A#|-------------------12------|-------------12-10-9-10----|
F#|---------------------------|---------------------------|
C#|---------------------------|---------------------------|
G#|---------------------------|---------------------------|
D#|---------------------------|---------------------------|


     S S  E  Q     S  S  E  Q        S  S  S  S  S  S  S  S S  S S S  S S S S  
D#|--7-8-10--L----10-12-13--L----|--10-12-13-12-10----------------------------|
A#|------------------------------|-----------------13-12-10-9-----------------|
F#|------------------------------|----------------------------10-9-7----------|
C#|------------------------------|-----------------------------------10-9-7-6-|
G#|------------------------------|--------------------------------------------|
D#|------------------------------|--------------------------------------------|


     Q    Q    Q    E  S S    Q.     S S Q    Q       Q    H        Q     
D#|------------------------|-----------------------|---------------------|
A#|------------------------|-----------------------|---------------------|
F#|------------------------|-----------------------|-------2-------------|
C#|--2----4----5----0--2---|--3------2-0-----------|-------2-------------|
G#|--0----2----3-----------|--3----------3----2----|-------0-------------|
D#|------------------------|-----------------------|----------------3----|


     W                   Q    H.              Q.     H        E   
D#|-------------------|--------------------|---------------------|
A#|-------------------|-------8------------|--3------3--------L--|
F#|--5----------------|--5----L------------|--0------0--------L--|
C#|--3----------------|--5----L------------|--0------0-----------|
G#|--3----------------|--3----L------------|---------------------|
D#|-------------------|--------------------|---------------------|


     Q    H        Q       Q    E  H        E     W                 
D#|---------------------|----------------------|-------------------|
A#|-------5-------------|----------------------|-------------------|
F#|--2----L-------------|--5-------5--------L--|--5----------------|
C#|--2----L-------------|--3-------3--------L--|--5----------------|
G#|--0----L-------------|--3-------3--------L--|--3----------------|
D#|----------------3----|----------------------|-------------------|


     Q.     H        E     Q    H        Q       W                 
D#|---------------------|---------------------|-------------------|
A#|--3------3--------L--|-------5-------------|-------------------|
F#|--0------0--------L--|--2----L-------------|--5----------------|
C#|--0------0-----------|--2----L-------------|--3----------------|
G#|---------------------|--0----L-------------|--3----------------|
D#|---------------------|----------------3----|-------------------|


     W                   Q.     H        E     Q    H        Q     
D#|-------------------|---------------------|---------------------|
A#|-------------------|--3------3--------3--|-------5-------------|
F#|--5----------------|--0------0--------0--|--2----L-------------|
C#|--5----------------|--0------0--------0--|--2----L-------------|
G#|--3----------------|---------------------|--0----L-------------|
D#|-------------------|---------------------|----------------3----|


     Q    E  H        E     W                   Q.     H        E   
D#|----------------------|-------------------|---------------------|
A#|----------------------|-------------------|--3------3--------3--|
F#|--5-------5--------L--|--5----------------|--0------0--------0--|
C#|--3-------3--------L--|--5----------------|--0------0--------0--|
G#|--3-------3--------L--|--3----------------|---------------------|
D#|----------------------|-------------------|---------------------|


     H.           Q       W                   Q    H.            
D#|--------------------|-------------------|--------------------|
A#|--------------------|-------------------|-------8------------|
F#|--2-----------------|--5----------------|--5----L------------|
C#|--2-----------------|--3----------------|--5----L------------|
G#|--0-----------------|--3----------------|--3----L------------|
D#|---------------3----|-------------------|--------------------|


     Q.     H        E     Q    H        Q       Q    E  H        E   
D#|---------------------|---------------------|----------------------|
A#|--3------3--------L--|-------5-------------|----------------------|
F#|--0------0--------L--|--2----L-------------|--5-------5--------L--|
C#|--0------0-----------|--2----L-------------|--3-------3--------L--|
G#|---------------------|--0----L-------------|--3-------3--------L--|
D#|---------------------|----------------3----|----------------------|


     W                   Q.     H        E     Q    H        Q     
D#|-------------------|---------------------|---------------------|
A#|-------------------|--3------3--------L--|-------5-------------|
F#|--5----------------|--0------0--------L--|--2----L-------------|
C#|--5----------------|--0------0-----------|--2----L-------------|
G#|--3----------------|---------------------|--0----L-------------|
D#|-------------------|---------------------|----------------3----|


     W                   W                   Q.     H        E   
D#|-------------------|-------------------|---------------------|
A#|-------------------|-------------------|--3------3--------3--|
F#|--5----------------|--5----------------|--0------0--------0--|
C#|--3----------------|--5----------------|--0------0--------0--|
G#|--3----------------|--3----------------|---------------------|
D#|-------------------|-------------------|---------------------|


     Q    H        Q       Q    E  H        E     W                 
D#|---------------------|----------------------|-------------------|
A#|-------5-------------|----------------------|-------------------|
F#|--2----L-------------|--5-------5--------L--|--2----------------|
C#|--2----L-------------|--3-------3--------L--|--0----------------|
G#|--0----L-------------|--3-------3--------L--|-------------------|
D#|----------------3----|----------------------|-------------------|


     E  E  E  E  E  E  E  E     E  E  H        Q       W                 
D#|--------------------------|----------------------|-------------------|
A#|--------------------------|----------------------|-------------------|
F#|--------------------------|----------------------|-------------------|
C#|--------------------2-----|-----2----------------|-------------------|
G#|--3--2--0-----3--2--0-----|-----0----------------|-------------------|
D#|-----------4--------------|----------------------|-------------------|

     W                   W                                      
D#|-------------------|-------------------|-------------------||
A#|-------------------|-------------------|-------------------||
F#|-------------------|-------------------|-------------------||
C#|-------------------|-------------------|-------------------||
G#|-------------------|-------------------|-------------------||
D#|-------------------|-------------------|-------------------||


**********************************************************************

| W - whole
| H - half
| Q - quarter
| E - 8th
| S - 16th
| T - 32nd
| X - 64th
| . - note dotted
| |-n-|  - n-tuplets
| L - tied note
| x - dead note
| g - grace note
| (n) - ghost note
| > - accentuded note
| NH - natural harmonic
| AH - artificial harmonic
| TH - tapped harmonic
| SH - semi harmonic
| PH - pitch harmonic
| h - hammer on
| p - pull off
| b - bend
| br - bendRelease
| pb - preBend
| pbr - preBendRelease
| brb - bendReleaseBend
| \n/ - tremolo bar dip
| \n - tremolo bar dive
| -/n - tremolo bar Release up
| /n\ - tremolo bar inverted dip
| /n - tremolo bar return
| -\n - tremolo bar Release down
| S - shift slide
| s - legato slide
| / -  slide into from below or out of upwards
| \ -  slide into from above or out of downwards
| ~ - vibrato
| W - wide vibrato
| tr - trill
| TP - tremolo picking
| T - tapping
| S - slap
| P - pop
| < - fade in
| ^ - brush up
| v - brush down

**********************************************************************
Suggest correction
Give kudos to tab author, rate the tab!
1 2 3 4 5
comments
print report bad tab
guest
You may want to rate the tab now too:
select rating
Wanna post a correction for this tab? Suggest correction