Oops, an error
Loading. Please wait.

Last Drop Falls tab

version 1
version 1

Whole song

Interactive

11,507 views 12 this week
no commentswrite comment
1 2 3 4 5
x 6
add to favorites
×
Save as Personal and add changes to this tab that will be seen only by you. Learn more ›
×
You can save this tab as Personal to edit and correct it or add notes. All changes will be seen only by you. Learn more »
launch autoscroll
font size
0
reset
how to read this tab
guitar tuner
edit
Autoscroll
slow
fast
+/-
esc
set tempo
stop
**************************************************************
* SONATA ARCTICA - LAST DROP FALLS (From the ALBUM: SILENCE) *
**************************************************************
 Music and Words By: Sonata Arctica/T.Kakko

Transcribed By: Niclas Buss
Day tabbed: 15.12.2001
Homepage: http://www.metalprovider.com/thedarktower/enter.htm
email: thetabber@yahoo.se

Please mail me if you can find mistakes!

-------------------------------------------

 Tune down 1/2 step!

  Intro (Clean sound with chorus)
E--3-------3------3------/2-------3--------3--------3------2-------3-------3--------|
B----0---0---0------3-------3--------0---0---0---0----3------3-------0---0---0---0--|
G------0-------0------0-------2--------0-------0--------0------2-------0-------0----|
D--2---------------------/0-------2------------------------0-------2----------------|
A-----------------------------------------------------------------------------------|
E-----------------3---------------------------------3------------------------------\|

E-3------2---------------0---------------------------------0------------3-----------|
B---3------3-----------1---1------------1---------3----------3------------3---------|
G-----0------2-------2-------2--------0---------0--------------0------------4-------|
D--------0---------2-----------2----2---------4------------------0------------------|
A----------------0----------------3-------/-5----------------------------------5--\-|
E-3---------------------------------------------------0~------------3---------------|

E---------0--------------------------------0-----------3------------------0---------|
B-------1---1------------1----------3--------3-----------3--------------1---1-------|
G-----2-------2--------0----------0------------0-----------4----------2-------2-----|
D---2-----------2----2----------4----------------0------------------2-----------2---|
A-0----------------3--------/-5------------------------------5--\-0---------------/-|
E--------------------------------------0------------3-------------------------------|

                 end Intro               Bridge
E-----------------------------------------------3--------2--------1-----------------|
B-------1---------3--------|--Verse-1--|------3--------3--------1---1-------------1-|
G-----0---------0----------|--same-as--|----4--------2--------2-------2---------0---|
D---2---------4------------|---Intro---|--5-------\4--------3-----------3-0---2-----|
A-3-------/-5--------------|-----------|------------------------------------3-------|
E--------------------0~~------------------------------------------------------------|

E-0---------------0-------2-------3--------2-------1-----------------0--------------|
B---1-----------0-------3-------3--------3-------1---1-------------1---1-----------3|
G-----0-------0-------2-------4--------2-------2-------2---------0-------0-------2--|
D-------2---2-------4-------5--------4-------3-----------3-0---2-----------2-\-0----|
A------------------------------------------------------------3----------------------|
E-----------------------------------------------------------------------------------|

               Verse 2
E-2h3p2---------3-------3--------3------2------3-------3--------3------2-------3----|
B-------3----|----0---0---0---0----3------3------0---0---0---0----3------3-------0--|
G---------2--|------0-------0--------0------2------0-------0--------0------2-------0|
D------------|--2-----------------------0------2-----------------------0-------2----|
A------------|----------------------------------------------------------------------|
E--------------------------------3------------------------------3-------------------|

                            Dist.on
E---3--------3------2---------------------------------------------------------------|
B-0---0---0----3------3-------------------------------------------------------------|
G-------0--------0------2----2~-----5-----7-----9------------------5-----7-----9----|
D-------------------0--------2~-----5-----7-----9---\--5-----7-----5-----7-----9----|
A----------------------------0~-----3-----5-----7---\--5-----7-----3-----5-----7----|
E------------3--------------------------------------\--3-----5--------------------\-|

                                      Bridge (2)
E-----------------------------------------------------------------------------------|
B-----------------------------------|-----------------------------------------------|
G----------------5-----7------------|---7-\-7----5----5----4--/--7--/--7--\--7---5--|
D----5-----7-----5-----7------------|---5-\-4----3----5----2--/--4--/--5--\--4---3--|
A----5-----7-----3-----5---/--7~----|-----------------3-----------------------------|
E-2~-3-----5------------------------------------------------------------------------|

                         Chorus (an acoustic gtr strums the same acords as the dist gtr.)
E-----------------------------------------------------------------------------------|
B----------------------|------------------------------------------------------------|
G--5-------------------|---2-----5-----9-----7-/-7-----2-----5--------------------2-|
D--5---\-2----4--------|---2-----5-----9-----4-/-5-----2-----5-----2----4----6----2-|
A--3---\-2----5--------|---0-----3-----7---------------0-----3-----2----5----7----0-|
E------\-0----2-/-3~~----------------------------------------------0----2----4------|

                                                         Guitar Solo (with Verse 1 r
E----------------------------------------------------------17b(19)--r17p15----------|
B------------------------------------------------------|-------------------17~~---\-|
G----5-----9----7-/-7-----2-----5-----4----------------|----------------------------|
D----5-----9----4-/-5-----2-----5-----4----------------|----------------------------|
A----3-----7--------------0-----3-----2----0~----------|----------------------------|
E----------------------------------------------3~--2~-------------------------------|

 iff)
E-----------------------------------/--15*-14*--------------------------------------|
B--12--15--------------------------------------15*----------------------------------|
G----------14b(16)---r14--12-----------------------14*-12*-11*------------------7---|
D----------------------------14--------------------------------12*-----/--7h8h9---9-|
A------------------------------------------------------------------12~--------------|
E-----------------------------------------------------------------------------------|
                             *=play these tones with the volume swell effect!

E--------------------------------------------------------------------12h14p12-------|
B-12~-----------------13b(15)~--r13-12h13p12~---12h15h17-17p15p12h15----------15p12h|
G---------------12------------------------------------------------------------------|
D------------------14---------------------------------------------------------------|
A------12h13h14---------------------------------------------------------------------|
E-----------------------------------------------------------------------------------|

E---12h14-/15-14-12--------------------------------------15-19-17-19-15-19-14-15b(17|
B15-----------------15-13-12--------------------------------------------------------|
G----------------------------14-12-11-/14b(16)r14~---\------------------------------|
D-----------------------------------------------------------------------------------|
A-----------------------------------------------------------------------------------|
E-----------------------------------------------------------------------------------|

E)~-r15p14--------------------------------------------------------------------------|
B----------15~--------------------------------/12-15--------------------------------|
G----------------11b(12)r11-9~------------------------14b(16)-r14~--12-----4-7------|
D--------------------------------9b(10)r9-7~------------------------------------7b(8|
A-----------------------------------------------------------------------------------|
E-----------------------------------------------------------------------------------|

                                                                             Chorus
E------------------------<12>~~--\--------------------------------------------------|
B---------------------------------\---|--Verse-3---|-----------------------|--------|
G------------9~-----------------------|--same-as---|-----------------------|*--2----|
D)r7~--5------------------------------|--Verse-1---|---4-4-4-4--/-6-6-6-6--|*--2----|
A--------7~-------<7>~~---------------|------------|---5-5-5-5--/-7-7-7-7--|---0----|
E------------------------------------------------------2-2-2-2--/-4-4-4-4-----------|
                                                      pm.................|
                                _____________________ ___________
 (2)                           |1.2.3.               |4.         |  Clean Sound
E------------------------------|---------------------|-----------||---3------3------|
B------------------------------|---------------------|-----------||-----0------3----|
G-5-----9----7-/-7----2-----5--|--------------------*|-----------||-------0------0--|
D-5-----9----4-/-5----2-----5--|--2----/--4--/--6---*|---2~------||-----------------|
A-3-----7-------------0-----3--|--2----/--5--/--7----|---2~------||-----------------|
E------------------------------|--0----/--2--/--4----|---0~------||-----------------|

E-2-------3-----3--------3-----------2--------------------<12>~~----||
B---3-------0------0---------0-----------3---------------<12>~~-----||
G-----2-------0-------0----------0-----------2~~-------<12>~~-------|| end
D-------------------------------------------------------------------||
A-------------------------------------------------------------------||
E--------------------------------------------------0~~--------------||

-----------------------------------------------------------------------------------------

=======================
=TABLATURE EXPLANATION=
=======================

A.H. = Artificial Harmonic

pm..| = Palm mute

h = hammer on

p = pull off

/ = slide up

\ = slide down

~ = Vibrato

b() = Bend

x\ = Pick Slide

--------
--------
---12--- = Tremolo pick
----/---
----/---
----/---

---.---
--12--- = Staccato
-------
-------
-------

|     |
|     |
|*   *| = repeat from * to *
|*   *| 
|     |

            
            
Suggest correction
Creating personal tab
Creating personal tab
You can edit any tab online and save it as your Personal.

You can edit, replace or remove any tab part or add personal notes – all changes will be seen only by you.

Personal tabs can be accessed anytime from any device, even offline.
Learn more »
comments
print report bad tab
guest
Wanna post a correction for this tab? Suggest correction