Oops, an error
Loading. Please wait.

Mary-Lou Tab

version 1
version 1

Solo

Whole song

Interactive

10 views 1 this week
no commentswrite comment
1 2 3 4 5
3 more votes to show rating
add to favorites
launch autoscroll
font size
0
reset
how to read this tab
guitar tuner
Autoscroll
slow
fast
+/-
esc
set tempo
stop
Help us to improve Ultimate-Guitar.com Take our survey!
×
Author
Difficulty
Tuning
novice
D# G# C# F# A# D#
[Solo]
D#|--10--12-11--10--8----------------------------------------------------------------|
A#|-------------------8-8s10-10------------------------------------------------------|
F#|----------------------------------------------------------------------------------|
C#|-------------------------------10-12-14-15-14-14s12--10--7------------------------|
G#|----------------------------------------------------------------------------------|
D#|----------------------------------------------------------------------------------|


D#|----------------------------------------------------------------------------------|
A#|-6---5---3-------5-6-8-6-5----5---3-----------5-6-8--8-10-10s11-10-8-10s6-8s5-6s3-|
F#|------------3s7-------------7---5---0--3s7--7-------------------------------------|
C#|---5---4--------------------------------------------------------------------------|
G#|----------------------------------------------------------------------------------|
D#|----------------------------------------------------------------------------------|


D#|----------------------------------------------------------------------------------|
A#|-3s5-5-5s8-8-6p5p3---3h5----------------------------------------------------------|
F#|-------------------5-----5--------------------------------------------------------|
C#|----------------------------------------------------------------------------------|
G#|----------------------------------------------------------------------------------|
D#|----------------------------------------------------------------------------------|



************************************

| h  Hammer-on
| p  Pull-off 

************************************
Suggest correction
Give kudos to tab author, rate the tab!
1 2 3 4 5
comments
print report bad tab
guest
You may want to rate the tab now too:
select rating
Wanna post a correction for this tab? Suggest correction