Oops, an error
Loading. Please wait.

Replica Bass Tab

version 1
version 1

Whole song

Interactive

4,036 views 9 this week
no commentswrite comment
1 2 3 4 5
please rate
add to favorites
launch autoscroll
font size
0
reset
guitar tuner
Tab Pro tools
  • play this tab
  • loop segment
  • change instrument
  • show fretboard
  • metronome
Autoscroll
slow
fast
+/-
esc
set tempo
stop
Contributor
#----------------------------------PLEASE NOTE---------------------------------#
#This file is the author's own work and represents their interpretation of the #
#song. You may only use this file for private study, scholarship, or research. #
#------------------------------------------------------------------------------#

REPLICA (Bassline)
As recorded by Sonata Arctica
(From the 2000 Album ECLIPTICA)

Transcribed by Alberto Casanovas
	

Words by Tony Kakko Music by Sonata Arctica
Arranged by Sonata Arctica

Gtr I (E A D G) - 'Bass'

 Intro         Verse 1
  Q=150
 4/4
  Gtr I
  Wx13          Wx8
|-------------|--------|
|-------------|--------|
|-------------|--------|
|-------------|--------|


   W          W          W          W
|-----------|----------|----------|------|
|-----------|----------|----------|------|
|-10--------|-8--------|-7--------|-6----|
|-----------|----------|----------|------|


  H.      Q    H.      Q    H.      Q    W          +W
|------------|------------|------------|----------|--------|
|------------|------------|------------|----------|--------|
|-5-------7--|-8-------7--|-5-------7--|-3--------|-(3)----|
|------------|------------|------------|----------|--------|


   Verse 2
                                             1.
    e e H    Q    e e H    Q    e e H    Q    e e Q.   Q.
||--------------|-------------|-------------|-----------------||
||o-------------|-------------|-------------|----------------o||
||o-5-5---------|----------5--|-3-3------3--|-1-1------0-----o||
||-----------0--|-1-1---------|-------------|-----------------||


  2.
  H    H       H    H      H    H      H.      Q    W
|-----------|------------|-----------|------------|------|
|-----------|------------|-----------|------------|------|
|-1----0----|-10----8----|-7----6----|-5-------7--|-8----|
|-----------|------------|-----------|------------|------|


   H    H      H    H      W          W          +W
|------------|-----------|----------|----------|--------|
|------------|-----------|----------|----------|--------|
|-10----8----|-7----6----|-5--------|-3--------|-(3)----|
|------------|-----------|----------|----------|--------|


   Chorus 1
    H.      Q    H.      Q    H.      Q    W            W          +W
||-------------|------------|------------|-----------||----------|--------|
||o------------|------------|------------|----------o||----------|--------|
||o-5----------|------------|-3-------3--|----------o||-1--------|-(1)----|
||----------0--|-1-------1--|------------|-3---------||----------|--------|


   Guitar solo
                                             1.
    e e H    Q    e e H    Q    e e H    Q    e e Q.   Q.
||--------------|-------------|-------------|-----------------||
||o-------------|-------------|-------------|----------------o||
||o-5-5---------|----------5--|-3-3------3--|-1-1------0-----o||
||-----------0--|-1-1---------|-------------|-----------------||


  2.
             2/4
  H    H      E Q.
|-----------|--------|
|-----------|--------|
|-1----0----|--------|
|-----------|---3----|


   Verse 3
    Q=150                                    1.
   4/4
    e e H    Q    e e H    Q    e e H    Q    e e Q.   Q.
||--------------|-------------|-------------|-----------------||
||o-------------|-------------|-------------|----------------o||
||o-5-5---------|----------5--|-3-3------3--|-1-1------0-----o||
||-----------0--|-1-1---------|-------------|-----------------||


  2.
  H    H       H    H      H    H      H.      Q    W
|-----------|------------|-----------|------------|------|
|-----------|------------|-----------|------------|------|
|-1----0----|-10----8----|-7----6----|-5-------7--|-8----|
|-----------|------------|-----------|------------|------|


   H    H      H    H      H    H      W          +W
|------------|-----------|-----------|----------|--------|
|------------|-----------|-----------|----------|--------|
|-10----8----|-7----6----|-----------|-3--------|-(3)----|
|------------|-----------|-5----6----|----------|--------|


   Chorus 2
    H.      Q    H.      Q    H.      Q    W
||-------------|------------|------------|-------||
||o------------|------------|------------|------o||
||o-5----------|------------|-3-------3--|------o||
||----------0--|-1-------1--|------------|-3-----||


 Bridge
  W          H    H      W          Q  Q  Q  Q    W
|----------|-----------|----------|-------------|------|
|----------|-----------|----------|-------------|------|
|-1--------|------3----|-1--------|-5--5--5--3--|-1----|
|----------|-1---------|----------|-------------|------|


  H    H      Q  Q  Q  Q    Q  Q  Q  Q
|-----------|-------------|-------------|
|-----------|-------------|-------------|
|------3----|-0--1--0--1--|-0--1--0--1--|
|-1---------|-------------|-------------|


    E E E E E E E E   E E E E E E E E   E E E E E E E E   E E E E E E E E
||------------------|-----------------|-----------------|-------------------||
||o-----------------|-----------------|-----------------|------------------o||
||o-5-5-5-5-5-5-5-5-|-5-5-5-5-5-5-5-5-|-5-5-5-5-5-5-5-5-|-5-5-5-5-5-5-5-5--o||
||------------------|-----------------|-----------------|-------------------||


 Guitar Solo 2
  W          H    H      W          Q  Q  Q  Q    W
|----------|-----------|----------|-------------|------|
|----------|-----------|----------|-------------|------|
|-1--------|------3----|-1--------|-5--5--5--3--|-1----|
|----------|-1---------|----------|-------------|------|


  H    H      H    E E E E   E E E E E E E E
|-----------|--------------|-----------------|
|-----------|--------------|-----------------|
|------3----|-1----1-1-1-1-|-1-1-1-1-1-1-1-1-|
|-1---------|--------------|-----------------|


   Keyboard Solo
                                                         1.
    E E E E E E E E   E E E E E E E E   E E E E E E E E   E E E E E E E E
||------------------|-----------------|-----------------|-------------------||
||o-----------------|-----------------|-----------------|------------------o||
||o-5-5-5-5-5-5-5-5-|-8-8-8-8-8-8-8-8-|-----------------|------------------o||
||------------------|-----------------|-8-8-8-8-8-8-8-8-|-6-6-6-6-6-6-6-6---||


                   Bridge 2
  2.
  E E E E E E E E    H    H      H    H      H.      Q    W
|-----------------|------------|-----------|------------|------|
|-----------------|------------|-----------|------------|------|
|-----------------|-10----8----|-7----6----|-5-------7--|-8----|
|-6-6-6-6-5-5-5-5-|------------|-----------|------------|------|


   H    H      H    H      E E E Q   E  E E   +E  E E Q.  Q
|------------|-----------|------------------|-----------------|
|------------|-----------|------------------|-----------------|
|-10----8----|-7----6----|-5-8-7------------|-----------------|
|------------|-----------|-------8--11-10-6-|-(6)-9-8-5s==3\--|


 Pre-Chorus
  Wx6          W          W
|------------|----------|------|
|------------|----------|------|
|------------|-3--------|------|
|------------|----------|-3----|


   Chorus 3
    H.      Q    H.      Q    H.      Q    W     7x
||-------------|------------|------------|-------||
||o------------|------------|------------|------o||
||o-5----------|------------|-3-------3--|------o||
||----------0--|-1-------1--|------------|-3-----||


                            H.=H
  H.      Q    H.      Q    W          W          +W
|------------|------------|----------|----------|--------|
|------------|------------|----------|----------|--------|
|-5----------|------------|-3--------|----------|--------|
|---------0--|-1-------1--|----------|-3--------|-(3)----|


 Outro
  Q=120                        H.=H
  Wx8          W          H    H      W          W          W
|------------|----------|-----------|----------|----------|------*|
|------------|----------|-----------|----------|----------|------*|
|------------|----------|-----------|----------|----------|------*|
|------------|----------|-----------|----------|----------|------*|



Duration Legend
---------------
W - whole; H - half; Q - quarter; E - 8th; S - 16th; T - 32nd; X - 64th; a - acciaccatura
+ - note tied to previous; . - note dotted; .. - note double dotted
Uncapitalized letters represent notes that are staccato (1/2 duration)
Irregular groupings are notated above the duration line
Duration letters will always appear directly above the note/fret number it represents the
duration for.  Duration letters with no fret number below them represent rests.  Multi-
bar rests are notated in the form Wxn, where n is the number of bars to rest for.  Low
melody durations appear below the staff

Tablature Legend
----------------
 h   - hammer-on
 p   - pull-off
 b   - bend
 pb  - pre-bend
 r   - bend release (if no number after the r, then release immediately)
 /\  - slide into or out of (from/to "nowhere")
 s   - legato slide
 S   - shift slide
 - natural harmonic
[n]  - artificial harmonic
n(n) - tapped harmonic
 ~   - vibrato
 tr  - trill
 T   - tap
 TP  - trem. picking
 PM  - palm muting
\n/  - tremolo bar dip; n = amount to dip
 \n  - tremolo bar down
 n/  - tremolo bar up
/n\  - tremolo bar inverted dip
 =   - hold bend; also acts as connecting device for hammers/pulls
 <> - volume swell (louder/softer)
 x   - on rhythm slash represents muted slash
 o   - on rhythm slash represents single note slash

Misc Legend
-----------
 |  - bar
||  - double bar
||o - repeat start
o|| - repeat end
*|  - double bar (ending)
 :  - bar (freetime)
 $  - Segno
 &  - Coda
Tempo markers -  = BPM(8/16=s8/s16), where s8 = swing 8ths, s16 = swing 16ths

comments
We did not receive enough feedback on this tab! Please rate:
print report bad tab
1 2 3 4 5
I want to post or [tab]
guest
You may want to rate the tab now too:
select rating
Please do not post tabs as comments. Select "correction" instead!