Oops, an error
Loading. Please wait.

Rest Of The Sun Belongs To Me Tab

version 1
version 1

Whole song

535 views 1 this week
no commentswrite comment
1 2 3 4 5
please rate
add to favorites
launch autoscroll
font size
0
reset
how to read this tab
guitar tuner
Tab Pro tools
  • play this tab
  • loop segment
  • change instrument
  • show fretboard
  • metronome
Autoscroll
slow
fast
+/-
esc
set tempo
stop
Contributor
Difficulty
intermediate
********************************************************
*  SONATA ARCTICA - THE REST OF THE SUN BELONGS TO ME  *
*  (Bonus track from the album: WINTERHEART’S GUILD)   *
********************************************************
Music and Words By: Sonata Arctica
Transcribed By: Martin Steinkopf (<3 jani <3)
Day tabbed: 03rd Jan. 2007
Email: martin_emppu@hotmail.com
Tuning: (Eb - Ab - Db - Gb - Bb - Eb) (1/2 step down)

Intro:      | Verse 1: (00:02)
|-----------|--------------------------------------------------------------|
|-drums...--|--------------------------------------------------------------|
|-----------|*-------------------------------------------------------------|
|-----------|*-5\3------3---5----------------------------------------------|
|-----------|--3\1--5---1---3-3-3-3-3-3-3-3-3-3-3-3-3-3-3-3-3-3-3-3-3-3-3--|
|-----------|-------3------------------------------------------------------|
                            Pm. . . . . . . . . . . . . . . . . . . . . .

          x3  |                      |Bridge 1 | 1.
|-------------|----------------------|---------|---------------------------|
|-------------|----------------------|---------|---------------------------|
|------------*|----------------------|*-------*|---------------------------|
|------------*|--5\3------3---3------|*-8-----*|--5------------------------|
|--3-3-3-3-3--|--3\1--5---1---0---6--|--6---3--|--3-3-3-3-3-3-3-3-3-3-3-3--|
|-------------|-------3-----------4--|------1--|---------------------------|
   . . . . .                                      Pm. . . . . . . . . . .
                                    | 2.
|-----------------------------------|--------------------------------------|
|-----------------------------------|--------------------------------------|
|-----------------------------------|--------------------------------------|
|-----------------------------------|--5-----------------------------------|
|--3-3-3-3-3-3-3-3-3-3-3-3-3-3-3-3--|--3-3-3-3-3-3-3-3-3-3-3-3-3-3-3-3-3---|
|-----------------------------------|--------------------------------------|
   . . . . . . . . . . . . . . . .     Pm. . . . . . . . . . . . . . . .

                          |
|-------------------------|-----------------------------------------------|
|-------------------------|-----------------------------------------------|
|-------------------------|-----------------------------------------------|
|--5----------------------|--8-------5--3-------6~-----6~-----5---3-------|
|--5-5-5-5-5-5-5-5-5-5-5--|--6---3---3--1--6----4~-----4~-----3---1---6~--|
|-------------------------|------1---------4--------------------------4~--|
     . . . . . . . . . .
| Chorus 1                                                     | Verse 2
|--------------------------------------------------------------|-----------|
|--------------------------------------------------------------|-----------|
|--------------------------------------------------------------|-----------|
|--6-------3~---------6----------6-------3~-------------3~-----|------3----|
|--4---3---1~-----4---4---6~-----4---3---1~-----4---3---1~-----|--5---1----|
|------1----------2-------4~---------1----------2---1----------|--3--------|

                                                        |
--------------------------------------------------------|------------------|
--------------------------------------------------------|------------------|
--------------------------------------------------------|*-----------------|
5-------------------------------------------------------|*-5\3------3---5--|
3-3-3-3-3-3-3-3-3-3-3-3-3-3-3-3-3-3-3-3-3-3-3-3-3-3-3-3-|--3\1--5---1---3--|
--------------------------------------------------------|-------3----------|
Pm. . . . . . . . . . . . . . . . . . . . . . . . . . .

                                                       x2   |
|-----------------------------------------------------------|--------------|
|-----------------------------------------------------------|--------------|
|----------------------------------------------------------*|--------------|
|----------------------------------------------------------*|--5\3------3--|
|--3-3-3-3-3-3-3-3-3-3-3-3-3-3-3-3-3-3-3-3-3-3-3-3-3-3-3-3--|--3\1--5---1--|
|-----------------------------------------------------------|-------3------|
 Pm. . . . . . . . . . . . . . . . . . . . . . . . . . . .

|         |Bridge 2 | 1.
|---------|---------|------------------------------------------------------|
|---------|---------|------------------------------------------------------|
|---------|*-------*|------------------------------------------------------|
|--3------|*-8-----*|--5---------------------------------------------------|
|--0---6--|--6---3--|--3-3-3-3-3-3-3-3-3-3-3-3-3-3-3-3-3-3-3-3-3-3-3-3-3---|
|------4--|------1--|------------------------------------------------------|
                       Pm. . . . . . . . . . . . . . . . . . . . . . . .

         | 2.
|--------|----------------------------------------------------------|------|
|--------|----------------------------------------------------------|------|
|--------|----------------------------------------------------------|------|
|--------|-5---------------------------------5----------------------|--8---|
|-3-3-3--|-3-3-3-3-3-3-3-3-3-3-3-3-3-3-3-3-3-5-5-5-5-5-5-5-5-5-5-5--|--6---|
|--------|----------------------------------------------------------|------|
  . . .   Pm . . . . . . . . . . . . . . . .   . . . . . . . . . .
                                            | Chorus 2
|-------------------------------------------|-----------------------------|
|-------------------------------------------|-----------------------------|
|-------------------------------------------|-----------------------------|
|------5--3-------6~-----6~-----5---3-------|--6-------3~---------6-------|
|--3---3--1--6----4~-----4~-----3---1---6~--|--4---3---1~-----4---4---6~--|
|--1---------4--------------------------4~--|------1----------2-------4~--|


                                   | Harmony solo (guitar and keyboard)
-----------------------------------|--15--------13---------15---------16---|
-----------------------------------|---------------------------------------|
-----------------------------------|----12-12-12---12-12-12---12-12-12--12-|
---6-------3~-------------3~-------|---------------------------------------|
---4---3---1~-----4---3---1~-------|---------------------------------------|
-------1----------2---1------------|---------------------------------------|


|--------15--------13-------------------16-18-20------15--------13----------|
|-------------------------------16-18-20--------20--------------------------|
|--12-12---12-12-12--17-15-17-19------------------------12-12-12---12-12-12-|
|---------------------------------------------------------------------------|
|---------------------------------------------------------------------------|
|---------------------------------------------------------------------------|


|--15--------16---------15---------13----------------15--------13----------|
|----------------------------------------1515-12---------------------------|
|----12-12-12---12-12-12---12-12-12--------------12----12-12-12---12-12-12-|
|--------------------------------------------------------------------------|
|--------------------------------------------------------------------------|
|--------------------------------------------------------------------------|

|--15--------16---------15---------13----------------------16-18-20-22-20--|
|-------------------------------------------------16-18-20-----------------|
|----12-12-12---12-12-12---12-12-12---17-15-17-19--------------------------|
|--------------------------------------------------------------------------|
|--------------------------------------------------------------------------|
|--------------------------------------------------------------------------|

|15-16---------15------------------------------------------------------15-|
|------16-15-18--15-----------15-----------16-18-20-18-16-----------------|
|------------------17-17-16-17--17-16-17-19--------------19-17-----------*|
|-------------------------------------------------------------17-17-15-17*|
|-------------------------------------------------------------------------|
|-------------------------------------------------------------------------|

| Bridge 3                                                        |
|-----------------------------------------------------------------|--------|
|-----------------------------------------------------------------|--------|
|-----------------------------------------------------------------|--------|
|--8-----------5-----5---5-----5---8-----------5-----5---5-----5--|--8-----|
|--6---3---3-3-3-3-3-3-3-3-3-3-3---6---3---3-3-3-3-3-3-5-5-5-5-5--|--6---3-|
|------1-------------------------------1--------------------------|------1-|
         Pm. .   . .   .   . .             . .   . .   .   . .


--------------------------------------------------------------------------|
--------------------------------------------------------------------------|
--------------------------------------------------------------------------|
--5--3----------6-----6-----6-----6-----6-----6-----6-----6---5---3-------|
--3--1--6---4-4-4-4-4-4-4-4-4-4-4-4-4-4-4-4-4-4-4-4-4-4-4-4---3---1---6~--|
--------4-------------------------------------------------------------4~--|
          Pm. .   . .   . .   . .   . .   . .   . .   . .


| Chorus 3                                                      |
|---------------------------------------------------------------|---------|
|---------------------------------------------------------------|---------|
|*-------------------------------------------------------------*|---------|
|*-6-------3~---------6----------6-------3~-------------3~-----*|--3\-----|
|--4---3---1~-----4---4---6~-----4---3---1~-----4---3---1~------|--1\-----|
|------1----------2-------4~---------1----------2---1-----------|---------|

                            End...
comments
We did not receive enough feedback on this tab! Please rate:
print report bad tab
1 2 3 4 5
I want to post or [tab]
guest
You may want to rate the tab now too:
select rating
Please do not post tabs as comments. Select "correction" instead!