Oops, an error
Loading. Please wait.

San Sebastian Bass Tab

version 2
version 2

Whole song

Interactive

709 views 3 this week
no commentswrite comment
1 2 3 4 5
please rate
add to favorites
launch autoscroll
font size
0
reset
guitar tuner
Tab Pro tools
  • play this tab
  • loop segment
  • change instrument
  • show fretboard
  • metronome
Autoscroll
slow
fast
+/-
esc
set tempo
stop
Contributor
#----------------------------------PLEASE NOTE---------------------------------#
#This file is the author's own work and represents their interpretation of the #
#song. You may only use this file for private study, scholarship, or research. #
#------------------------------------------------------------------------------#

SAN SEBASTIAN (REVISITED) (Bassline)
As recorded by Sonata Arctica
(From the 2001 Album SILENCE)

Transcribed by A. Casanovas
	

Words by Tony Kakko Music by Sonata Arctica
Arranged by Sonata Arctica

Gtr I (E A D G) - 'Untitled'

   Intro
    Q=165
   4/4
    Gtr I
    S S S S S S S S S S S S S S S S   S S S S S S S S S S S S S S S S
||----------------------------------|----------------------------------|
||o---------------------------------|----------------------------------|
||o---------------------------------|-4-4-4-4-4-4-4-4-4-4-4-4-4-4-4-4--|
||--2-2-2-2-2-2-2-2-2-2-2-2-2-2-2-2-|----------------------------------|


  S S S S S S S S S S S S S S S S   S S S S S S S S S S S S S S S S
|---------------------------------|----------------------------------|
|---------------------------------|----------------------------------|
|---------------------------------|-7-7-7-7-7-7-7-7-7-7-7-7-7-7-7-7--|
|-5-5-5-5-5-5-5-5-5-5-5-5-5-5-5-5-|----------------------------------|


  S S S S S S S S S S S S S S S S   S S S S S S S S S S S S S S S S
|---------------------------------|----------------------------------|
|---------------------------------|----------------------------------|
|-5-5-5-5-5-5-5-5-5-5-5-5-5-5-5-5-|----------------------------------|
|---------------------------------|-2-2-2-2-2-2-2-2-2-2-2-2-2-2-2-2--|


  S S S S S S S S S S S S S S S S   S S S S S S S S S S S S S S S S
|---------------------------------|-----------------------------------||
|---------------------------------|----------------------------------o||
|-5-5-5-5-5-5-5-5-5-5-5-5-5-5-5-5-|-7-7-7-7-7-7-7-7-7-7-7-7-7-7-7-7--o||
|---------------------------------|-----------------------------------||


   Verse 1
    S S S S S S S S S S S S S S S S   S S S S S S S S S S S S S S S S
||----------------------------------|---------------------------------|
||o---------------------------------|---------------------------------|
||o---------------------------------|-4-4-4-4-4-4-4-4-5-4---4---------|
||--2-2-2-2-2-2-2-2-2-2-2-2-2-2-2-2-|---------------------7---7-5-4-5-|


  S S S S S S S S S S S S S S S S   S S S S S S S S S S S S S S S S
|---------------------------------|----------------------------------|
|---------------------------------|----------------------------------|
|---------------------------------|-4-4-4-4-4-4-4-4-5-4---4----------|
|-2-2-2-2-2-2-2-2-2-2-2-2-2-2-2-2-|---------------------7---7-5-4-5--|


  S S S S S S S S S S S S S S S S   S S S S S S S S S S S S S S S S
|---------------------------------|----------------------------------|
|---------------------------------|----------------------------------|
|-5-5-5-5-5-5-5-5-5-5-5-5-5-5-5-5-|----------------------------------|
|---------------------------------|-5-5-5-5-5-5-5-5-5-5-5-5-5-5-5-5--|


  S S S S S S S S S S S S S S S S   S S S S S S S S S S S S S S S S
|---------------------------------|-----------------------------------||
|---------------------------------|----------------------------------o||
|---------------------------------|-7-7-7-7-7-7-7-7-6-6-6-6-6-6-6-6--o||
|-7-7-7-7-7-7-7-7-7-7-7-7-7-7-7-7-|-----------------------------------||


   Bridge 1
    S S S S S S S S S S S S S S S S   S S S S S S S S S S S S S S S S
||----------------------------------|---------------------------------|
||o---------------------------------|-4-4-4-4-4-4-4-4-4-4-4-4-4-4-4-4-|
||o-5-5-5-5-5-5-5-5-5-5-5-5-5-5-5-5-|---------------------------------|
||----------------------------------|---------------------------------|


  1.
  S S S S S S S S S S S S S S S S   S S S S S S S S S S S S S S S S
|---------------------------------|-----------------------------------||
|---------------------------------|-7-7-7-7-7-7-7-7-6-6-6-6-6-6-6-6--o||
|-7-7-7-7-7-7-7-7-7-7-7-7-7-7-7-7-|----------------------------------o||
|---------------------------------|-----------------------------------||


  2.
  S S S S S S S S S S S S S S S S   S S S S S S S S S S S S S S S S
|---------------------------------|----------------------------------|
|---------------------------------|----------------------------------|
|-7-7-7-7-7-7-7-7-7-7-7-7-7-7-7-7-|-4-4-4-4-4-4-4-4-4-4-4-4-4-4-4-4--|
|---------------------------------|----------------------------------|


   Chorus 1
   4/4
    Gtr I
    S S S S S S S S S S S S S S S S   S S S S S S S S S S S S S S S S
||----------------------------------|----------------------------------|
||o---------------------------------|----------------------------------|
||o---------------------------------|-4-4-4-4-4-4-4-4-4-4-4-4-4-4-4-4--|
||--2-2-2-2-2-2-2-2-2-2-2-2-2-2-2-2-|----------------------------------|


  S S S S S S S S S S S S S S S S   S S S S S S S S S S S S S S S S
|---------------------------------|----------------------------------|
|---------------------------------|----------------------------------|
|---------------------------------|-7-7-7-7-7-7-7-7-7-7-7-7-7-7-7-7--|
|-5-5-5-5-5-5-5-5-5-5-5-5-5-5-5-5-|----------------------------------|


  S S S S S S S S S S S S S S S S   S S S S S S S S S S S S S S S S
|---------------------------------|----------------------------------|
|---------------------------------|----------------------------------|
|-5-5-5-5-5-5-5-5-5-5-5-5-5-5-5-5-|----------------------------------|
|---------------------------------|-2-2-2-2-2-2-2-2-2-2-2-2-2-2-2-2--|


  S S S S S S S S S S S S S S S S   S S S S S S S S S S S S S S S S
|---------------------------------|-----------------------------------||
|---------------------------------|----------------------------------o||
|-5-5-5-5-5-5-5-5-5-5-5-5-5-5-5-5-|-7-7-7-7-7-7-7-7-7-7-7-7-7-7-7-7--o||
|---------------------------------|-----------------------------------||


 Verse 2
  S S S S S S S S S S S S S S S S   S S S S S S S S S S S S S S S S
|---------------------------------|----------------------------------|
|---------------------------------|----------------------------------|
|---------------------------------|-4-4-4-4-4-4-4-4-5-4---4----------|
|-2-2-2-2-2-2-2-2-2-2-2-2-2-2-2-2-|---------------------7---7-5-4-5--|


  S S S S S S S S S S S S S S S S   S S S S S S S S S S S S S S S S
|---------------------------------|----------------------------------|
|---------------------------------|----------------------------------|
|---------------------------------|-4-4-4-4-4-4-4-4-5-4---4----------|
|-2-2-2-2-2-2-2-2-2-2-2-2-2-2-2-2-|---------------------7---7-5-4-5--|


  S S S S S S S S S S S S S S S S   S S S S S S S S S S S S S S S S
|---------------------------------|----------------------------------|
|---------------------------------|----------------------------------|
|-5-5-5-5-5-5-5-5-5-5-5-5-5-5-5-5-|----------------------------------|
|---------------------------------|-5-5-5-5-5-5-5-5-5-5-5-5-5-5-5-5--|


  S S S S S S S S S S S S S S S S   E E E E E E E E
|---------------------------------|-----------------|
|---------------------------------|-----------------|
|---------------------------------|-7-5-4---5-4-----|
|-7-7-7-7-7-7-7-7-7-7-7-7-7-7-7-7-|-------5-----5-4-|


  S S S S S S S S S S S S S S S S   S S S S S S S S S S S S S S S S
|---------------------------------|----------------------------------|
|---------------------------------|----------------------------------|
|---------------------------------|-4-4-4-4-4-4-4-4-5-4---4----------|
|-2-2-2-2-2-2-2-2-2-2-2-2-2-2-2-2-|---------------------7---7-5-4-5--|


  S S S S S S S S S S S S S S S S   S S S S S S S S S S S S S S S S
|---------------------------------|----------------------------------|
|---------------------------------|----------------------------------|
|---------------------------------|-4-4-4-4-4-4-4-4-5-4---4----------|
|-2-2-2-2-2-2-2-2-2-2-2-2-2-2-2-2-|---------------------7---7-5-4-5--|


  S S S S S S S S S S S S S S S S   S S S S S S S S S S S S S S S S
|---------------------------------|----------------------------------|
|---------------------------------|----------------------------------|
|-5-5-5-5-5-5-5-5-5-5-5-5-5-5-5-5-|----------------------------------|
|---------------------------------|-5-5-5-5-5-5-5-5-5-5-5-5-5-5-5-5--|


  S S S S S S S S S S S S S S S S   S S S S S S S S S S S S S S S S
|---------------------------------|----------------------------------|
|---------------------------------|----------------------------------|
|---------------------------------|-7-7-7-7-7-7-7-7-6-6-6-6-6-6-6-6--|
|-7-7-7-7-7-7-7-7-7-7-7-7-7-7-7-7-|----------------------------------|


   Bridge 2
    S S S S S S S S S S S S S S S S   S S S S S S S S S S S S S S S S
||----------------------------------|---------------------------------|
||o---------------------------------|-4-4-4-4-4-4-4-4-4-4-4-4-4-4-4-4-|
||o-5-5-5-5-5-5-5-5-5-5-5-5-5-5-5-5-|---------------------------------|
||----------------------------------|---------------------------------|


  1.
  S S S S S S S S S S S S S S S S   S S S S S S S S S S S S S S S S
|---------------------------------|-----------------------------------||
|---------------------------------|-7-7-7-7-7-7-7-7-6-6-6-6-6-6-6-6--o||
|-7-7-7-7-7-7-7-7-7-7-7-7-7-7-7-7-|----------------------------------o||
|---------------------------------|-----------------------------------||


  2.
  S S S S S S S S S S S S S S S S   S S S S S S S S S S S S S S S S
|---------------------------------|----------------------------------|
|---------------------------------|----------------------------------|
|-7-7-7-7-7-7-7-7-7-7-7-7-7-7-7-7-|-4-4-4-4-4-4-4-4-4-4-4-4-4-4-4-4--|
|---------------------------------|----------------------------------|


   Chorus 2
   4/4
    Gtr I
    S S S S S S S S S S S S S S S S   S S S S S S S S S S S S S S S S
||----------------------------------|----------------------------------|
||o---------------------------------|----------------------------------|
||o---------------------------------|-4-4-4-4-4-4-4-4-4-4-4-4-4-4-4-4--|
||--2-2-2-2-2-2-2-2-2-2-2-2-2-2-2-2-|----------------------------------|


  S S S S S S S S S S S S S S S S   S S S S S S S S S S S S S S S S
|---------------------------------|----------------------------------|
|---------------------------------|----------------------------------|
|---------------------------------|-7-7-7-7-7-7-7-7-7-7-7-7-7-7-7-7--|
|-5-5-5-5-5-5-5-5-5-5-5-5-5-5-5-5-|----------------------------------|


  S S S S S S S S S S S S S S S S   S S S S S S S S S S S S S S S S
|---------------------------------|----------------------------------|
|---------------------------------|----------------------------------|
|-5-5-5-5-5-5-5-5-5-5-5-5-5-5-5-5-|----------------------------------|
|---------------------------------|-2-2-2-2-2-2-2-2-2-2-2-2-2-2-2-2--|


  S S S S S S S S S S S S S S S S   S S S S S S S S S S S S S S S S
|---------------------------------|-----------------------------------||
|---------------------------------|----------------------------------o||
|-5-5-5-5-5-5-5-5-5-5-5-5-5-5-5-5-|-7-7-7-7-7-7-7-7-7-7-7-7-7-7-7-7--o||
|---------------------------------|-----------------------------------||


   Harmony Solo 1
    H.      Q    W          H.      Q    H    H
||-------------|----------|------------|-----------|
||o------------|----------|------------|-----------|
||o-5-------7--|-8--------|------------|-3----4----|
||-------------|----------|-6-------6--|-----------|


                                     1.           2.
                                                  3/4
  H.      Q    W          H    H      W            H.
|------------|----------|-----------|-----------||-------|
|------------|----------|-----------|----------o||-------|
|-5-------7--|-8--------|-----------|-5--------o||-5-----|
|------------|----------|-6----5----|-----------||-------|


 4/4
  H    +E  E E E   Q  Q  Q  Q
|----------------|-------------|
|----------8-5---|-------------|
|-6----(6)-----6-|-5--4--5--7--|
|----------------|-------------|


 Guitar Solo
  S S S S S S S S S S S S S S S S   S S S S S S S S S S S S S S S S
|---------------------------------|---------------------------------|
|---------------------------------|---------------------------------|
|---------------------------------|---------------------------------|
|-5-5-5-5-5-5-5-5-5-5-5-5-5-5-5-5-|-5-5-5-5-5-5-5-5-5-5-5-5-5-5-5-5-|


  S S S S S S S S S S S S S S S S   S S S S S S S S S S S S S S S S
|---------------------------------|---------------------------------|
|---------------------------------|---------------------------------|
|-5-5-5-5-5-5-5-5-5-5-5-5-5-5-5-5-|-5-5-5-5-5-5-5-5-5-5-5-5-5-5-5-5-|
|---------------------------------|---------------------------------|


 Keyboard Solo
  S S S S S S S S S S S S S S S S   S S S S S S S S S S S S S S S S
|---------------------------------|---------------------------------|
|---------------------------------|---------------------------------|
|---------------------------------|---------------------------------|
|-5-5-5-5-5-5-5-5-5-5-5-5-5-5-5-5-|-5-5-5-5-5-5-5-5-5-5-5-5-5-5-5-5-|


  S S S S S S S S S S S S S S S S   S S S S S S S S S S S S S S S S
|---------------------------------|---------------------------------|
|---------------------------------|---------------------------------|
|-5-5-5-5-5-5-5-5-5-5-5-5-5-5-5-5-|-5-5-5-5-5-5-5-5-5-5-5-5-5-5-5-5-|
|---------------------------------|---------------------------------|


   Harmony Solo 2
    H    H      H    H      H    H      H    H
||------------|-----------|-----------|------------||
||o-----------|-----------|-----------|-----------o||
||o------4----|-5---------|-6---------|-5---------o||
||--3---------|------6----|------5----|------2-----||


 3/4
  H.        +H.        Q  Q  Q
|---------|----------|----------|
|---------|----------|----------|
|-6-------|-(6)------|----------|
|---------|----------|-6--5--5--|


   Verse 3
   4/4
    S S S S S S S S S S S S S S S S   S S S S S S S S S S S S S S S S
||----------------------------------|----------------------------------|
||o---------------------------------|----------------------------------|
||o---------------------------------|-4-4-4-4-4-4-4-4-5-4---4----------|
||--2-2-2-2-2-2-2-2-2-2-2-2-2-2-2-2-|---------------------7---7-5-4-5--|


  S S S S S S S S S S S S S S S S   S S S S S S S S S S S S S S S S
|---------------------------------|----------------------------------|
|---------------------------------|----------------------------------|
|---------------------------------|-4-4-4-4-4-4-4-4-5-4---4----------|
|-2-2-2-2-2-2-2-2-2-2-2-2-2-2-2-2-|---------------------7---7-5-4-5--|


  S S S S S S S S S S S S S S S S   S S S S S S S S S S S S S S S S
|---------------------------------|----------------------------------|
|---------------------------------|----------------------------------|
|-5-5-5-5-5-5-5-5-5-5-5-5-5-5-5-5-|----------------------------------|
|---------------------------------|-5-5-5-5-5-5-5-5-5-5-5-5-5-5-5-5--|


  S S S S S S S S S S S S S S S S   S S S S S S S S S S S S S S S S
|---------------------------------|-----------------------------------||
|---------------------------------|----------------------------------o||
|---------------------------------|-7-7-7-7-7-7-7-7-6-6-6-6-6-6-6-6--o||
|-7-7-7-7-7-7-7-7-7-7-7-7-7-7-7-7-|-----------------------------------||


   Bridge 3
    S S S S S S S S S S S S S S S S   S S S S S S S S S S S S S S S S
||----------------------------------|---------------------------------|
||o---------------------------------|-4-4-4-4-4-4-4-4-4-4-4-4-4-4-4-4-|
||o-5-5-5-5-5-5-5-5-5-5-5-5-5-5-5-5-|---------------------------------|
||----------------------------------|---------------------------------|


  1.
  S S S S S S S S S S S S S S S S   S S S S S S S S S S S S S S S S
|---------------------------------|-----------------------------------||
|---------------------------------|-7-7-7-7-7-7-7-7-6-6-6-6-6-6-6-6--o||
|-7-7-7-7-7-7-7-7-7-7-7-7-7-7-7-7-|----------------------------------o||
|---------------------------------|-----------------------------------||


  2.
  S S S S S S S S S S S S S S S S   S S S S S S S S S S S S S S S S
|---------------------------------|----------------------------------|
|---------------------------------|----------------------------------|
|-7-7-7-7-7-7-7-7-7-7-7-7-7-7-7-7-|-4-4-4-4-4-4-4-4-4-4-4-4-4-4-4-4--|
|---------------------------------|----------------------------------|


 Drum fill
  E E H.        W
|-------------|------|
|-------------|------|
|-6-----------|------|
|-------------|------|


   Chorus 3
    W          W          W          W
||-----------|----------|----------|------|
||o----------|----------|----------|------|
||o----------|-5--------|----------|-8----|
||--3--------|----------|-6--------|------|


  W           W          W          W     4x
|----------|-----------|----------|-------||
|----------|-----------|----------|------o||
|-6--------|-10--------|-6--------|-8----o||
|----------|-----------|----------|-------||


  W          +W
|----------|--------*|
|----------|--------*|
|----------|--------*|
|-3--------|-(3)----*|



Duration Legend
---------------
W - whole; H - half; Q - quarter; E - 8th; S - 16th; T - 32nd; X - 64th; a - acciaccatura
+ - note tied to previous; . - note dotted; .. - note double dotted
Uncapitalized letters represent notes that are staccato (1/2 duration)
Irregular groupings are notated above the duration line
Duration letters will always appear directly above the note/fret number it represents the
duration for.  Duration letters with no fret number below them represent rests.  Multi-
bar rests are notated in the form Wxn, where n is the number of bars to rest for.  Low
melody durations appear below the staff

Tablature Legend
----------------
 h   - hammer-on
 p   - pull-off
 b   - bend
 pb  - pre-bend
 r   - bend release (if no number after the r, then release immediately)
 /\  - slide into or out of (from/to "nowhere")
 s   - legato slide
 S   - shift slide
 - natural harmonic
[n]  - artificial harmonic
n(n) - tapped harmonic
 ~   - vibrato
 tr  - trill
 T   - tap
 TP  - trem. picking
 PM  - palm muting
\n/  - tremolo bar dip; n = amount to dip
 \n  - tremolo bar down
 n/  - tremolo bar up
/n\  - tremolo bar inverted dip
 =   - hold bend; also acts as connecting device for hammers/pulls
 <> - volume swell (louder/softer)
 x   - on rhythm slash represents muted slash
 o   - on rhythm slash represents single note slash

Misc Legend
-----------
 |  - bar
||  - double bar
||o - repeat start
o|| - repeat end
*|  - double bar (ending)
 :  - bar (freetime)
 $  - Segno
 &  - Coda
Tempo markers -  = BPM(8/16=s8/s16), where s8 = swing 8ths, s16 = swing 16ths

comments
We did not receive enough feedback on this tab! Please rate:
print report bad tab
1 2 3 4 5
I want to post or [tab]
guest
You may want to rate the tab now too:
select rating
Please do not post tabs as comments. Select "correction" instead!