Oops, an error
Loading. Please wait.

Shy tab

version 2
version 2

Whole song

11,873 views 3 this week
1 commentread comment
1 2 3 4 5
x 4
add to favorites
×
Save as Personal and add changes to this tab that will be seen only by you. Learn more ›
×
You can save this tab as Personal to edit and correct it or add notes. All changes will be seen only by you. Learn more »
launch autoscroll
font size
0
reset
how to read this tab
guitar tuner
backing track
0:00
0:00
edit
Autoscroll
slow
fast
+/-
esc
set tempo
stop
Difficulty
intermediate
SHY                                                                                      
SONATA ARCTICA

[Intro]:
e|-------2-|-------1-|---------|-------2-|-------2-|-------1-|-------1-|-------2-|
B|-----4---|-----2---|-----0-4-|-----4---|---0-4---|-----2---|-----4---|-----4---|
G|---3-----|---1-----|---1-----|---3-----|---------|---1-----|---3-----|---3-----|
D|-1-------|---------|---------|-1-------|---------|---------|-1-------|-1-------|
A|---------|-4-------|---------|---------|-2-------|-4-------|---------|---------|
E|---------|---------|-4-------|---------|---------|---------|---------|---------|

e|-------2-|-------1-|---------|-------2-|-------2-|-------1-|-1-----2-|
B|-----4---|-----2---|-----0-4-|-----4---|---0-4---|-----2---|-4-------|
G|---3-----|---1-----|---1-----|---3-----|---------|---1-----|-3-------|
D|-1-------|---------|---------|-1-------|---------|---------|-1-------|
A|---------|-4-------|---------|---------|-2-------|-4-------|---------|
E|---------|---------|-4-------|---------|---------|---------|---------|

[Verso]:
e|-------2-|-------1-|---------|-------2-|-------2-|-------1-|-------2-|-------1-|
B|-----4---|-----2---|-----0-4-|-----4---|---0-4---|-----2---|-----4---|-----4---|
G|---3-----|---1-----|---1-----|---3-----|---------|---1-----|---3-----|---3-----|
D|-1-------|---------|---------|-1-------|---------|---------|-1-------|-1-------|
A|---------|-4-------|---------|---------|-2-------|-4-------|---------|---------|
E|---------|---------|-4-------|---------|---------|---------|---------|---------|
I Can see how you are beautiful, can you feel my eyes on you,
I'm shy and turn my head away

e|-------2-|-------1-|---------|-------2-|-------2-|-------1-|-------4-|-------1-|
B|-----4---|-----2---|-----0-4-|-----4---|---0-4---|-----2---|-----0---|-----2---|
G|---3-----|---1-----|---1-----|---3-----|---------|---1-----|---------|---1-----|
D|-1-------|---------|---------|-1-------|---------|---------|---4-----|---------|
A|---------|-4-------|---------|---------|-2-------|-4-------|-2-------|-2-------|
E|---------|---------|-4-------|---------|---------|---------|---------|---------|
Working late in diner Citylite, I see that you get home alright
Make sure that you can't see me, hoping you will see me

[Pre-Coro]:
e|-1-----1-|-2-----2-|-2-----2-|-1---2---|-1-----1-|-2-----2-|-2-----2-|-1---2-1---|
B|-3---3---|-4---4---|-4-0-4---|---0-----|-2---2---|-4---4---|-4-0-4---|---0-----4-|
G|-3-3-----|-3-3-----|-4-------|---------|-1-1-----|-3-3-----|-4-------|-----------|
D|---------|-1-------|---------|---------|---------|-1-------|---------|-----------|
A|-1-------|---------|-2-------|-------2-|-4-------|---------|-2-------|-----------|
E|---------|---------|---------|---------|---------|---------|---------|-----------|
Sometimes I'm Wondering why you look me and you blink your eye
You can't be acting like my Dana

e|---------|---------|---------|-4-----4-|---------|---------|---------|-----|
B|-6-----6-|-7-----6-|-7-0---6-|-4---4---|-6-----6-|-7-----7-|-7-0---6-|-7-6-|
G|-6---6---|-8---8---|-8---8---|-4-4-----|-6---6---|-8---8---|-8---8---|-8-6-|
D|-6-6-----|-8-8-----|-9-------|---------|-6-6-----|-8-8-----|-9-------|-9-6-|
A|-4-------|-6-------|---------|---------|-4-------|-6-------|---------|---4-|
E|---------|---------|-7-------|-4-------|---------|---------|-7-------|-7---|
I see you in Citylite diner serving all those meals and then
I see reflection of me in your eye, oh please

[Coro]                                                                                   2
e|--------|-----4-2-|---------|---------|
B|-4-6-7--|-0-6-4---|-4-6-6-7-|---6-6-7-|
G|-4-6-8--|-8-6-3---|-4-6-7-8-|-8-6-8---|
D|-4-6-8--|---6-----|-4-6-8-8-|-9-6-8---|
A|-2-4-6--|-9-4-6---|-2-----6-|-9-4-6---|
E|--------|-7-------|-----6---|-7-------|

[Bridge]
e|-4-6-|-7-0-7-0-|-7-0-7-0-|-------------|-------------|
B|-6-8-|-9---9---|-9---9---|-11----11----|-11----11----|
G|-6-8-|---------|---------|-11----11----|-11----11----|
D|-----|---------|---------|----11----11-|----11----11-|
A|-4-6-|---------|-7-------|-9-----------|-9-----9-----|
E|-----|-4-------|---------|-------------|-------------|
I see, can't have you, can't leave you there 'cos I must sometimes see you

e|-7---7---|-7-0-7-0-|-------------|-------------|
B|-9-8-9-8-|-9---9---|-------------|-11----11----|
G|---------|---------|-9-----9-----|-11----11----|
D|---------|---------|-10----10----|----11----11-|
A|---------|-7-------|----11----11-|-9-----------|
E|-4-------|---------|-9-----------|-------------|
But I don't understand how you can keep me in chains

e|-7---7---|-7-0-7-0-|-------------|-------------|
B|-9---9---|-9---9---|-11----11----|-11----11----|
G|---8---8-|---------|-11----11----|-11----11----|
D|---------|---------|----11----11-|----11----11-|
A|---------|-7-------|-9-----------|-9-----------|
E|-4-------|---------|-------------|-------------|
And every waken hour, I feel your taking power 

e|-7-0-7-0-|-------------|-------------|-------------|
B|-9---9---|-9-----9-----|-11----11----|-11----11----|
G|---------|-10----10----|-11----11----|-12----12----|
D|---------|----11----11-|----11----11-|----13----13-|
A|---------|-------------|-9-----------|-11----------|
E|-4-------|-9-----------|-------------|-------------|
From me and I can't leave, repeating the scene over again




            
            
Suggest correction
Creating personal tab
Creating personal tab
You can edit any tab online and save it as your Personal.

You can edit, replace or remove any tab part or add personal notes – all changes will be seen only by you.

Personal tabs can be accessed anytime from any device, even offline.
Learn more »
comments
print report bad tab
1 comment total.
0 reply
Amateuratlife 12 May 07, 2014 07:39 AM

this is pretty good, you just need to add the solo

guest
Wanna post a correction for this tab? Suggest correction