Oops, an error
Loading. Please wait.

Tallulah Chords

version 1
version 1

Whole song

Interactive

113,168 views 171 this week
5 commentsread comments
1 2 3 4 5
x 31
add to favorites
launch autoscroll
font size
0
reset
transpose
0
reset
simplify chords
display chords
guitar tuner
Autoscroll
slow
fast
+/-
esc
set tempo
stop
Help us to improve Ultimate-Guitar.com Take our survey!
×
Author
Difficulty
Capo
intermediate
4th fret
TALLULAH- SONATA ARCTICA
Standard Tuning, Capo 4


(Chords)

Emadd9 - 024000 or 022002
Em7    - 022033

LITTLE RIFFS:
D*  -   e|----3p2----------------------|
        B|--------3--------------------|
        G|----------2--0---------------|
        D|--0---------------4--0-------|
        A|-----------------------------|
        E|-----------------------------|

C D C D* - e|----------------------------------|
           B|----------------------------------|
           G|-----------------0-----0-2-----2--|
           D|-2-----2-4-----4-----2-------4----|
           A|-----3-------5-----3-------5------|
           E|---3-------5----------------------|


[Intro]

e||------------------|------------------|------------------|----------------|-
B||------------------|-----3-----3------|------------------|----------------|-
G||-------0-------2--|---0-----0---0----|-----0-------2----|-----4----------|-
D||-----0-------2----|-4-----4-------4--|---0-------2------|-2/4------------|-
A||---3-------5------|------------------|-3-------5--------|----------------|-  
E||------------------|------------------|------------------|----------------|-
     
e||------------------|------------------|------------------|-
B||------------------|-----3-----3------|------------------|-
G||-------0-------2--|---0-----0---0----|-----0------------|-
D||-----0-------2----|-4-----4-------4--|---0---------4----|-
A||---3-------5------|------------------|-3-------2/5------|-  
E||------------------|------------------|------------------|-
 
e|-------------------|------------------|------------------|-0---------------|
B|-0-------0---------|-0-------0--------|-0-------0--------|-0---------------|
G|-2-------2---------|-0-------0--------|-2-------2--------|-0---------------|
D|-----4-------4-----|-----2-------2----|-----4-------4----|-2---------------|
A|-------------------|------------------|------------------|-2---------------|
E|-------------------|------------------|------------------|-0---------------|


[Verse 1]

  Em             Emadd9  D/F#     G
Remember when we used to look how sun set far away'  
    Am                           Dsus4 D*
And how you said, "This is never o  -  ver"
Em              Emadd9 D/F#       G
I believed your every  word and I guess you did too
    Am                                        Dsus4 D
But now you're saying: "hey, let's think this o  -  ver"


[Pre-Chorus]

C           D                Emadd9          Em
You take my hand and pull me next to you, so close to you
C        D       Emadd9             Em
I have a feeling you don't have the words
C       D            G         D/F#       Em7      D/F#  C
I found one for you, kiss your cheek, say bye, and walk away
                           Dsus4  D
Don't look back cause I am cry  - ing                             
                                                             
     
e||------------------|------------------|------------------|----------------|-
B||------------------|-----3-----3------|------------------|----------------|-
G||-------0-------2--|---0-----0---0----|-----0-------2----|-----4----------|-
D||-----0-------2----|-4-----4-------4--|---0-------2------|-2/4------------|-
A||---3-------5------|------------------|-3-------5--------|----------------|-  
E||------------------|------------------|------------------|----------------|-
     
e||------------------|------------------|------------------|-
B||------------------|-----3-----3------|------------------|-
G||-------0-------2--|---0-----0---0----|-----0------------|-
D||-----0-------2----|-4-----4-------4--|---0---------4----|-
A||---3-------5------|------------------|-3-------2/5------|-  
E||------------------|------------------|------------------|-
 
e|-------------------|------------------|------------------|-0---------------|
B|-0-------0---------|-0-------0--------|-0-------0--------|-0---------------|
G|-2-------2---------|-0-------0--------|-2-------2--------|-0---------------|
D|-----4-------4-----|-----2-------2----|-----4-------4----|-2---------------|
A|-------------------|------------------|------------------|-2---------------|
E|-------------------|------------------|------------------|-0---------------|


[Verse 2]

Em         Emadd9 D/F#        G
I remember little things, you hardly ever do
Am                                 Dsus4 D*
Tell me why- I don't know why it's o  -  ver
Em         Emadd9   D/F#       G         
I remember shooting stars, the walk we took that night
  Am                       Dsus4   D
I hope your wish came true, mine betrayed me


[Pre-Chorus]

C          D                Emadd9           Em
You let my hand go, and you fake a smile for me
C        D           Emadd9             Em
I have a feeling you don't know what to do
C           D             G   D/F#   Em7    D/F#
I look deep in your eyes, hesitate a while...
C           Dsus4  D
Why are you cry  - ing?


[Chorus]

G    D         Am  Em          G         D                  C D C D*
Tallulah, it's easier to live alone than fear the time it's over
G    D             Am        Em              G    D
Tallulah, find the words and talk to me, oh, Tallulah, this could be...               
 

e|------------------|----------------|
B|------------------|----------------|
G|-----0-------2----|-----4----------|
D|---0-------2------|-2/4------------|
A|-3-------5--------|----------------|
E|------------------|----------------|
                           ... heaven 


[Verse 3]

Am                        C                                    Em
I see you walking hand in hand with long-haired drummer of the band
                          G                                  Am
In love with her or so it seems, he's dancing with my beauty queen
                           C                            Em
Don't even dare to say you hi, still swallowing the goodbye
                        G          D C
But I know the feelings still alive - still alive


[Instrumental]

Em  Emadd9  D/F#  G  Am  Dsus4  D*
Em  Emadd9  D/F#  G  Am  Dsus4  D


[Pre-Chorus]

C         D                 Emadd9        Em
I lost my patience once, so do you punish me now
C           D            Emadd9          Em
I'll always love you, no matter what you do
C            D              G        D/F#  Em7    D/F#
I'll win you back for me if you give me  a chance
C                               Dsus4 D
But there is one thing you must understand


[Chorus]

G    D         Am  Em          G         D                  C D C D*
Tallulah, it's easier to live alone than fear the time it's over
G    D             Am        Em              G    D                 C D C D*
Tallulah, find the words and talk to me, oh, Tallulah, this could be...
G    D         Am  Em          G         D                  C D C D*
Tallulah, it's easier to live alone than fear the time it's over
G    D             Am        Em              G    D                  
Tallulah, find the words and talk to me, oh, Tallulah, this could be...                   

e|------------------|----------------|
B|------------------|-----0----------|
G|-----0-------2----|----------------|
D|---0-------2------|-2/4------------|
A|-3-------5--------|----------------|
E|------------------|----------------|
  *using the open B string at the end for more of a ring*

************************************

| /  Slide up

************************************
Suggest correction
comments
print report bad tab
5 comments total. Showing first comments.
+4 reply
AdVisory 291 Jun 10, 2010 02:14 PM

Excellent! Nice version to play this with fingerstyle picking! 5 stars!

+2 reply
Balin le Savage 10 Aug 07, 2014 11:25 AM

Absolutely awesome version, 5 stars!

Makes a lot of fun to play.

Btw. I play the "little riff" D* with 2p0 and 4p0. Sounds better imo. ;)

0 reply
sinForge xJp 1,480 Aug 07, 2014 02:41 PM

Thank you! This is definitely one of my most well-received arrangements on this site, and I love when people give me feedback on it :)

guest
You may want to rate the tab now too:
select rating
Wanna post a correction for this tab? Suggest correction