Oops, an error
Loading. Please wait.

Tallulah Tab

version 1
version 1

Whole song

Interactive

41,072 views 30 this week
no commentswrite comment
1 2 3 4 5
x 3
add to favorites
launch autoscroll
font size
0
reset
how to read this tab
guitar tuner
Autoscroll
slow
fast
+/-
esc
set tempo
stop
Help us to improve Ultimate-Guitar.com Take our survey!
×
Tuning
D# G# C# F# A# D#
Tune down 1/2 step!

                                        [Verse 2] (Gtr enters with clean sound at 1:33)
D#|------------------------------------------------0--------------------------------0-|
A#|---------------|--------------------|---------1---1-------1--------3-------------1-|
F#|--Piano-Intro--|--Verse-1-&-Bridge--|-------2-------2-------2--------4-----------0-|
C#|----(18-sec)---|----(Piano-&-Voc.)--|-----2-----------2-------2--------5------2----|
G#|---------------|--------------------|---0---------------0--------2--------\3-------|
D#|-----------------------------------------------------------------------------------|

D#|-----------0--0-----------1-----1-----1--1---------------3---------------3---------|
A#|-----------1----1---------3-----3-----3----3-----------3---3-----------3---3-------|
F#|-----------0------0----2-----2-----2---------2-------5-------5-------4-------4-----|
C#|--2-----2------------0-----------------------------5-----------5---5-----------5---|
G#|-----3-----------------------------------------------------------------------------|
D#|-----------------------------------------------\-3---------------3-----------------|

D#|----------0----------------------------------0---------------0--------------1----/3|
A#|--------1---1--------1--------3------------3---3-----------3---3------------3------|
F#|------2-------2--------2--------4--------5-------5-------5-------5-------2-----2---|
C#|----2-----------2--------2--------5----5-----------5---5-----------5---0-----------|
G#|--0---------------0---------2--------3---------------3-----------------------------|
D#|-----------------------------------------------------------------------------------|

                                                       [Bridge]
D#|-------1-----------------3---------------3--------------------1---1------------3---|
A#|-3-------3-------------3---3-----------3---3-------|------------1---1------------3-|
F#|---2-------2---------5-------5-------4-------4-----|------------------2------------|
C#|-----0-------0-----5-----------5---5-----------5---|-------3-----------------5-----|
G#|---------------------------------------------------|-----3-----------------5-------|
D#|---------------\-3---------------3---------------------1-----------------3---------|

D#|-3--------------0---------------0----------------1---1------------3---3------------|
A#|---3----------1---1-----------0---0----------------1---1------------3---3----------|
F#|-----4------2-------2-------2-------2--------------------2----------------4------2-|
C#|----------2-----------2---2-----------2-------3-----------------5--------------2---|
G#|--------0---------------0-------------------3-----------------5--------------0-----|
D#|------------------------------------------1-----------------3----------------------|

D#|---0---------------0--------------1---1------------3---3----------8--------7-------|
A#|-1---1-----------0---0--------------1---1------------3---3----------8--------8-----|
F#|-------2-------2-------2------------------2----------------4----------9--------9---|
C#|---------2---2-----------2------3----------------5------------/10--------9---------|
G#|-----------0------------------3----------------5-----------------------------------|
D#|----------------------------1----------------3-------------------------------------|

D#|-------------3--------------1---1------------1---1--------------3---------3--------|
A#|--------1------3--------------1---1------------1---1----------3---3---------3------|
F#|------2----------4------------------2----------------2------5-------5---------4----|
C#|----2--------------------3-----------------3--------------5-----------5---------5~-|
G#|--0--------------------3-----------------3-----------------------------------------|
D#|-----------3---------1-----------------1----------------3---------------3----------|

  [Chorus]
D#|----------0-----------------1----1----1---------------0--------------0-------------|
A#|--1----1--1-1---3-----3-----3----3----3-3---1----1----1-1----1----1--1-1---3----3--|
F#|--0----0--0-0---4-----4-----2----2----2-2---2----2----2-2----0----0--0-0---4----4--|
C#|--2----2--2-2---5-----5-----0----0------0---2----2----2-2----2----2--2-2-\-5----5-/|
G#|--3----3--------5-----5---------------------0----0------0----3----3--------5----5--|
D#|----------------3-----3--------------------------------------------------\-3----3--|

D#|-----1----------3-----------0-----3-----------------0------------------3---------1-|
A#|---1---1------3---3-------1---------3-------1----1--1-1----------------3-----------|
F#|------------------------2-------------4-----0----0--0-0----4--4--4---4-4------2----|
C#|-3-------/-5--------------------------------2----2--2-2----5--5--5---5-5----0------|
G#|----------------------0--------2----------/-3----3---------5--5--5---5-------------|
D#|-----------------------------------------------------------3--3--3---3-------------|

                                                                            [Interlude]
D#|--------------0--------0-------------3--------------------------------------1------|
A#|-3----------1-----------1-------------3-----------1~-------3~-------5~~--|--3-3---3|
F#|----2-----2---------------0-------------4-------0--------2--------4------|------2--|
C#|-------------------2--------2-------------5-\-3------/-5------/-7--------|---------|
G#|-------0---------3---------------5---------------------------------------|---------|
D#|-------------------------------3---------------------------------------------------|

   (with an acoustic guitar that strums the chords)
D#|-1----------------1----------------0----------------0--------/-1-------1-----------|
A#|---3------------1---1------------1---1------------1---1------/-3-3---3---3---------|
F#|-----2----------------2--------2-------2--------0-------0----------2-------2-------|
C#|-------0------3---------3----2-----------2----2-----------2------------------0-----|
G#|------------3--------------0----------------3-------------------------------------3|
D#|----------1---------------------------------------------------------------------1--|

                                                                      [Guitar Solo] (Distortion)
D#|-----1----------------0--------/3-----------3----------1)----1)~-------------------|
A#|---1---1------------1---1---------3-------3---3--------1(----1(~--|----------------|
F#|---------2--------2-------2---------5---5-------4------3)----2)~--|---7b(9)~~--r-7b|
C#|-3---------3----2-----------2---------5-----------5~~--3(----3(~--|----------------|
G#|--------------0---------------------------------------------------|----------------|
D#|-----------------------------------------------------------------------------------|

D#|-----------------------------------------------------------------------------------|
A#|--------------------------------A.H.-----------------------------------------------|
F#|(9)r7p5--/-12~--10h12p10p9-A.H.--9b(10)~--r9--7~------------------7--5h7p5-\4~-----|
C#|---------------------------10~--------------------7-\---/-7-9-10----------------7--|
G#|-----------------------------------------------------------------------------------|
D#|-----------------------------------------------------------------------------------|

D#|-----------------------------------------------------------------------------------|
A#|------------------------10-\-8~~---15b(17)-r15p13-------------------------15b(17)-r|
F#|--------------------7-9---------------------------14~---14~~--14--16--17~----------|
C#|-5-------7~--7-9-10----------------------------------------------------------------|
G#|----\-7----------------------------------------------------------------------------|
D#|-----------------------------------------------------------------------------------|

                                [Bridge] (2)
D#|--------------------/17~~------15b(17)-r15~~--12p8----10p7-------------------------|
A#|-15p13-15---15~~-13---------|----------------------10------8-------/-10---12b(13)r1|
F#|----------------------------|---------------------------------9~~------------------|
C#|----------------------------|------------------------------------------------------|
G#|----------------------------|------------------------------------------------------|
D#|-----------------------------------------------------------------------------------|

D#|------------------------------------------------------------------15-17-19b(20)r19-|
A#|2---b(13)r12b(13)r12-----------------------------------------/-17------------------|
F#|-----------------------12-/-14-14~~---12p10p9--------------------------------------|
C#|----------------------------------------------9~--10h12p10~------------------------|
G#|-----------------------------------------------------------------------------------|
D#|-----------------------------------------------------------------------------------|

                                                               Chorus (2) (with an acou
D#|-15-----------------------------17--19--20--p19-17-19~~--19b(20)~~-----------------|
A#|----17~--18b(20)--r18p17h18~----------------------------|--------------------------|
F#|--------------------------------------------------------|-----5-----------7--------|
C#|--------------------------------------------------------|-----5-----5-----7-----7--|
G#|--------------------------------------------------------|-----3-----5-----5-----7--|
D#|--------------------------------------------------------------------3-----------5--|

    stic guitar that strums the chords)
D#|-----------------------------------------------------------------------------------|
A#|-----------------------------------------------------------------------------------|
F#|--5------------------/--2--/--4--/--5---------7-----------5------------------/--2--|
C#|--5----5----3--/--5--/--2--/--5--/--5----5----7-----7-----5----5----3--/--5--/--2--|
G#|--3----5----3--/--5--/--0--/--2--/--3----5----5-----7-----3----5----3--/--5--/--0--|
D#|-------3----1--/--3----------------------3----------5----------3----1--/--3--------|
                                                   _______________________ ___________
                                                  |1.                     |2. Keyboard
D#|-----------------------------------------------|-----------------------|-----------|
A#|--------------|--------------------------------|-----------------------|----------1|
F#|-/--4--/--5\--|*---5---------7---------5-------|----------/--2--/--4--*|-------0---|
C#|-/--5--/--5\--|*---5----5----7----7----5----5--|-3--/--5--/--2--/--5--*|--/-3------|
G#|-/--2--/--3\--|----3----5----5----7----3----5--|-3--/--5--/--0--/--2---|-----------|
D#|------------------------3---------5---------3--|-1--/--3---------------|-----------|
   _______________________________
   arranged for guitar            |
D#|-------------------------------||
A#|---------3------------5~~------||
F#|------2------------4-----------|| end
C#|-/-5---------/--7--------------||
G#|-------------------------------||
D#|-------------------------------||

************************************

| \  Slide down
| /  Slide up
| ~  Vibrato
| r  Release
| b  Bend
| h  Hammer-on
| p  Pull-off
| *  Natural harmonic

************************************
Suggest correction
Give kudos to tab author, rate the tab!
1 2 3 4 5
comments
print report bad tab
guest
You may want to rate the tab now too:
select rating
Wanna post a correction for this tab? Suggest correction