Oops, an error
Loading. Please wait.

Tallulah tab

version 2
version 2

Whole song

Interactive

1,874 views 1 this week
no commentswrite comment
1 2 3 4 5
3 more votes to show rating
add to favorites
×
Save as Personal and add changes to this tab that will be seen only by you. Learn more ›
×
You can save this tab as Personal to edit and correct it or add notes. All changes will be seen only by you. Learn more »
launch autoscroll
font size
0
reset
how to read this tab
guitar tuner
edit
Autoscroll
slow
fast
+/-
esc
set tempo
stop
Author
SONATA ARCTICA

TALLULAH

-CHECK OUT MY COVER VIDEO, PROBABLY BE MUTCH EASIER TO LEARN THROUGH:

http://www.youtube.com/watch?v=zfKvBNx_JIE

-MY CHANNEL:

http://www.youtube.com/RYN0375


-INTRO:

half-step down

    (4/4)
eb||------------------------------------|-------------------------------|
Bb||------------------------------------|-------------------------------|
Gb||-----5___-----7___-----9---9--------|-----5___-----7___-----9______-|
Db||---5--------7--------9---9---9------|---5--------7--------9---------|
Ab||-8-------10-------12-----------12---|-8-------10-------12-----------|
Eb||------------------------------------|-------------------------------|
   ( 1   +    2   +    3     +      4 + | 1   +    2   +    3   +   4 + )
                                    (2/4)
|----------------------------------|-------------------|
|----------------------------------|-------------------|
|-----5___-----7___-----9---9------|-----5___-----7___-|
|---5--------7--------9---9---9----|---5--------7------|
|-8-------10-------12-----------12-|-8-------10--------|
|----------------------------------|-------------------|
  Am (4/4)
|-------------------|-----------------||
|-5---5-----5---5---|-5---5---5-------||
|-5---5---5-5---5---|-5---5---5-------||
|-7-7---7-----7---7-|---7---7---------||
|-------------------|-----------------||
|-------------------|-----------------||
( 1 + 2 +   3 + 4 + | 1 + 2 + 3 + 4 + )

-VERSE I: "Remember when we used to look..."

   Am (4/4)                          C
||---------0---------------0-------|-0---0-----0---0-----|
||-------1---1-----------1---1-----|-1---1-----1---1-----|
||-----2-------2-------2-------2---|-0---0-----0---0-----|
||---2-----------2---2-----------2-|---------2---------0-|
||-0---------------0---------------|-3-3---3-----3---0---|
||---------------------------------|---------------------|
 ( 1   +   2   +   3   +   4   +   | 1 + 2 +   3 +  4  + )
  Dm                    G         *use your pinky finger*
|-1---1-----1---1-----|-3---3----3-3h5p3------------------|
|-3---3-----3---3-----|-3---3----3--------3h5p3-----------|
|-2---2---2-2---2---0-|-4---4--4-4---------------5p4\2-0--|
|-0-0---0-----0---0---|-5-5---5---------------------------|
|---------------------|-----------------------------------|
|---------------------|-----------------------------------|
( 1 + 2 +   3 + 4 +   | 1 + 2 +  3 \ all in count &  half/)

-"I believed your every word..."
  Am                                C
|---------0---------------0-------|-0---0-----0---0-----|
|-------1---1-----------1---1-----|-1---1-----1---1-----|
|-----2-------2-------2-------2---|-0---0-----0---0-----|
|---2-----------2---2-----------2-|---------2---------0-|
|-0---------------0---------------|---3---3-----3---0---|
|---------------------------------|---------------------|
  Dm       *Ds4 Dm        G                      *Ds4 = Dsus4          
|-1---1-----3---1-----|-3---3----3---3---||
|-3---3-----3---3---0-|-3---3----3---3---||
|-2---2---2-2---2-0---|-4---4--4-4---4---||
|---0---0-----0-------|---5---5----5---5-||
|---------------------|------------------||
|---------------------|------------------||

-BRIDGE I: "You take my hand and pull me..."

   F         G           Am
||-1---1-----3---3---|-5---5-----5---5---|    (x2)
||-1---1-----3---3---|-5---5-----5---5---|
||-2---2---2-4---4---|-5---5---5-5---5---|
||---3---3-----5---5-|---7---7-----7---7-|
||-------------------|-------------------|
||-------------------|-------------------|
  F         G         Bm     Am     G      F
|-1---1-----3---3---|-7------5------3------1------|
|-1---1-----3---3---|----7------5------3------1---|
|-2---2---2-4---4---|------7------5------4------2-|
|---3---3-----5---5-|-9------7------5------3------|
|-------------------|-----------------------------|
|-------------------|-----------------------------|
( 1 + 2 +   3 + 4 + | 1  +   2  +   3  +   4  +   ) 
                        */ / *G
-"Don't look back, 'cause I am crying"
  F             / /   G
|-1---1-----1---1-1-|-3---3-----3-------||
|-1---1-----1---1-1-|-3---3-----3-------||
|-2---2---2-2---2-2-|-4---4---4-4-------||
|---3---3-----3-----|---5---5-----------||
|-------------------|-------------------||
|-------------------|-------------------||
( 1 + 2 +   3 + 4 + | 1 + 2 +   3 + 4 + )

INTRO (again):

||------------------------------------|-------------------------------|
||------------------------------------|-------------------------------|
||-----5___-----7___-----9---9--------|-----5___-----7___-----9______-|
||---5--------7--------9---9---9------|---5--------7--------9---------|
||-8-------10-------12-----------12---|-8-------10-------12-----------|
||------------------------------------|-------------------------------|
   ( 1   +    2   +    3     +    4 + | 1   +    2   +    3   +   4 + )
                                    (2/4)
|----------------------------------|-------------------|
|----------------------------------|-------------------|
|-----5___-----7___-----9---9------|-----5___-----7___-|
|---5--------7--------9---9---9----|---5--------7------|
|-8-------10-------12-----------12-|-8-------10--------|
|----------------------------------|-------------------|
  Am (4/4)
|-----------5---5---|-5---5---5-------||
|-5---5-----5---5---|-5---5---5-------||
|-5---5---5-5---5---|-5---5---5-------||
|-7-7---7-----7---7-|---7---7---------||
|-------------------|-----------------||
|-------------------|-----------------||
( 1 + 2 +   3 + 4 + | 1 + 2 + 3 + 4 + )

-VERSE II: "I remember little things..."

                                    *just sturm the chords.
   Am                                C
||---------0---------------0-------|-0---/---/---/---|
||-------1---1-----------1---1-----|-1---/---/---/---|
||-----2-------2-------2-------2---|-0---/---/---/---|
||---2-----------2---2-----------2-|-2---/---/---/---|
||-0---------------0---------------|-3---/---/---/---|
||---------------------------------|-----------------|
 ( 1   +   2   +   3   +   4   +   | 1 + 2 + 3 + 4 + )
  Dm                G
|-1---/---/---/---|-3---/---/-3h5p3------------------| 
|-3---/---/---/---|-3---/---/--------3h5p3-----------|
|-2---/---/---/---|-4---/---/---------------5p4\2-0--|
|-0---/---/---/---|-5---/---/------------------------|
|-----------------|----------------------------------|
|-----------------|----------------------------------|
( 1 + 2 + 3 + 4 + | 1 + 2 + 3 +...                   )

-"I remeber shooting stars... "
  Am                                C
|---------0---------------0-------|-0---/---/---/---|
|-------1---1-----------1---1-----|-1---/---/---/---|
|-----2-------2-------2-------2---|-0---/---/---/---|
|---2-----------2---2-----------2-|-2---/---/---/---|
|-0---------------0---------------|-3---/---/---/---|
|---------------------------------|-----------------|
( 1   +   2   +   3   +   4   +   | 1 + 2 + 3 + 4 + )
  Dm      Dsus4 Dm    G
|-1---/---3-----1---|-3---/---/---/---||
|-3---/---3-----3---|-3---/---/---/---||
|-2---/---2-----2---|-4---/---/---/---||
|-0---/---0-----0---|-5---/---/---/---||
|-------------------|-----------------||
|-------------------|-----------------||
( 1 + 2 + 3  +  4 + |     (same)      )

-BRIDGE II: "You let my hand go..."

   F       G         Am
||-1---/---3---/---|-0---/---/---/---|    (x2)
||-1---/---3---/---|-1---/---/---/---|
||-2---/---4---/---|-2---/---/---/---|
||-3---/---5---/---|-2---/---/---/---|
||-3---/---5---/---|-0---/---/---/---|
||-1---/---3---/---|-----------------|
 ( 1 + 2 + 3 + 4 + |     (same)      )
  F       G         Bm  Am  G   F
|-1---/---3---/---|-7---5---3---1---|
|-1---/---3---/---|-7---5---3---1---|
|-2---/---4---/---|-7---5---4---2---|
|-3---/---5---/---|-9---7---5---3---|
|-3---/---5---/---|-----------------|
|-1---/---3---/---|-----------------|
( 1 + 2 + 3 + 4 + | 1 + 2 + 3 + 4 + )
  F                 G
|-1---/---/---/---|-3---/---/---/---||
|-1---/---/---/---|-3---/---/---/---||
|-2---/---/---/---|-4---/---/---/---||
|-3---/---/---/---|-5---/---/---/---||
|-3---/---/---/---|-5---/---/---/---||
|-1---/---/---/---|-3---/---/---/---||

-CHORUS: "Tallulah, its easier to live alone... "

   C       G         Dm      Am        C       G
||-0---/---3---/---|-1---/---0---/---|-0---/---3---/---|
||-1---/---3---/---|-3---/---1---/---|-1---/---3---/---|
||-0---/---0---/---|-2---/---2---/---|-0---/---0---/---|
||-2---/---0---/---|-0---/---2---/---|-2---/---0---/---|
||-3---/---2---/---|---------0---/---|-3---/---2---/---|
||---------3---/---|-----------------|---------3---/---|
  F   G   Am  Bm    C       G         Dm      Am        C       G
|-1---3---5---7---|-0---/---3---/---|-1---/---0---/---|-0---/---3---/---||
|-1---3---5---7---|-1---/---3---/---|-3---/---1---/---|-1---/---3---/---||
|-2---4---5---7---|-0---/---0---/---|-2---/---2---/---|-0---/---0---/---||
|-3---5---7---9---|-2---/---0---/---|-0---/---2---/---|-2---/---0---/---||
|-----------------|-3---/---2---/---|---------0---/---|-3---/---2---/---||
|-----------------|---------3---/---|-----------------|---------3---/---||

                                  (2/4)
||-------------------------------|-*12______-||
||-------------------------------|-*12______-||
||-----5___-----7___-----9______-|-*12______-||
||---5--------7--------9---------|-*12______-||
||-8-------10-------12-----------|-*12______-||
||-------------------------------|-*12______-||
                         *whisper: "Heaven... "

-INTERLUDE (4/4): "I see you walking hand in hand... " (x2)

   Dm      Ds4 Dm    Am      C
||-1---/---3---1---|-0---/---0---/---|
||-3---/---3---3---|-1---/---1---/---|
||-2---/---2---2---|-2---/---0---/---|
||-0---/---0---0---|-2---/---2---/---|
||-----------------|-0---/---3---/---|
||-----------------|-----------------|
  Dm      Ds4 Dm    Am      C?
|-1---/---3---1---|-0---/-----------||
|-3---/---3---3---|-1---/---3---/---||
|-2---/---2---2---|-2---/---5---/---||
|-0---/---0---0---|-2---/---5---/---||
|-----------------|-0---/---3---/---||
|-----------------|-----------------||

||--1(------1(------||
||--1)------1)------||
||--3(------2(------||
||--3)------3)------||
||-"still a-live"---||
||------------------||

-SOLO: (VERSE riff over the solo)

||------------------------|----------------------------|
||------------------------|----------------------------|
||-7b-(9)----7b-(9)r-7p5--|-/12--10h12p10\9------------|
||------------------------|-----------------10(A.H.)---|
||------------------------|----------------------------|
||------------------------|----------------------------|

|-------------------------|---------------------------------------|
|-(A.H.)------------------|---------------------------------------|
|--9b-(10)r-9---7---------|----------7--5h3p3-4--2--0------2-2----|
|------------------7---\--|-/7-9-12--------------------/2---------|
|-------------------------|---------------------------------------|
|-------------------------|---------------------------------------|

 (pretty fast)

|-----------5p3-3---|
|-------3-5---------|
|-2-4-5-------------|
|-------------------|
|-------------------|
|-------------------|

|-10b-(12)r-10p8------|---------7-8---|
|----------------10---|-10---10-------|
|---------------------|---------------|
|---------------------|---------------|
|---------------------|---------------|
|---------------------|---------------|

|-10b-(12)r-10p8-10---|-10--8--|
|---------------------|--------|
|---------------------|--------|
|---------------------|--------|
|---------------------|--------|
|---------------------|--------|

-BRIDGE III: (same as BRIDGE II)

 |L/GTE 
 |
 |-/17---17-17-17-17-15-------||
 |----------------------------||
 |----------------------------||
 |----------------------------||
 |----------------------------||
 |----------------------------||
 |  1  +  2    +      3 + 4 + |
 |                            |
 |R/GTR                       |
 |                            |
||-1--------/--------3---/----|
||-1--------/--------3---/----|
||-2--------/--------4---/----|    and so on...
||-3--------/--------5---/----|
||-3--------/--------5---/----|
||-1--------/--------3---/----|
 |

CHORUS & END!




=================(2nd-version)===================


SonatAArcticA-Tallulah-tune half-step down

(INTRO)

VERSE:

Am
Remember when we used to look
    C
how sun set far away?
    Dm                            G
And how you said: "this is never over"
Am
I believed your every word
    C
and I quess you did too
    Dm
But now you´re saying :
 Dsus       Dm          G
"hey, let´s think this over" 

BRIDGE:

F             G
/ You take My hand and pull me
Am
next to you, so close to you 
F          G
/ I have a feeling
Am
you don't have the words 
F         G
/ I found one for you,
Bm        Am         G        F
kiss your cheak, say bye, and walk
F                                 G
away. Don't look back cause I am crying

(INTRO)
(VERSE)
(BRIDGE)

CHORUS:
C       G
/ Tallu-Lah,
     Dm  Am
It's eas-ier to live
  C         G
a-lone than fear the time it's
F G Am Bm
over... 
C       G
/ Tallu-Lah,
         Dm        Am
find the words and talk to me ,oh,
C       G
/ Tallu-Lah,

This could be... heaven

INTERLUDE:
   Dm  Ds4 Dm   Am  C
|| / / /   /  | / / / / || (x4)

(SOLO)
(BRIDGE)
(CHORUS)


HOPE I HELPED & GOOD-LUCK LEARNING THE SONG


=============================================================================

            
            
Suggest correction
Creating personal tab
Creating personal tab
You can edit any tab online and save it as your Personal.

You can edit, replace or remove any tab part or add personal notes – all changes will be seen only by you.

Personal tabs can be accessed anytime from any device, even offline.
Learn more »
Give kudos to tab author, rate the tab!
1 2 3 4 5
comments
print report bad tab
guest
You may want to rate the tab now too:
select rating
Wanna post a correction for this tab? Suggest correction