Oops, an error
Loading. Please wait.

Tallulah Bass Tab

version 3
version 3

Whole song

Interactive

990 views 1 this week
no commentswrite comment
1 2 3 4 5
please rate
add to favorites
launch autoscroll
font size
0
reset
guitar tuner
Tab Pro tools
  • play this tab
  • loop segment
  • change instrument
  • show fretboard
  • metronome
×
Best way to learn
"Tallulah"
Autoscroll
slow
fast
+/-
esc
set tempo
stop
Contributor
Difficulty
Tuning
intermediate
D# G# C# F# A# D#
-----------------------------------------------------------------------------
                          Tallulah - Sonata Arctica
-----------------------------------------------------------------------------



Tabbed By: Stian Aune
e-mail: Stianaune3@hotmail.com

Tuning: Half step down (5 strings); Bb Eb Ab Db Gb




Please note:
Bass comes in when the drums do, at approximately 1 minute and 30 seconds 
into the song. Listen carefully for pauses in the bars and staccato notes.



Verse 2
F#|-----------------|-----------------|-----------------|-----------------|
C#|-----------------|-----------------|-----------------|-----------------|
G#|-0-----0-0---0-2-|-3-----3-3---3-4-|-5-----5-5-----5-|-----------------|
D#|-----------------|-----------------|-----------------|-3-----3-3-------|
A#|-----------------|-----------------|-----------------|-----------------|
>   1 + 2 + 3 + 4 +   1 + 2 + 3 + 4 +   1 + 2 + 3 + 4 +   1 + 2 + 3 + 4 +  

F#|-----------------|-----------------|-----------------|-----------------|
C#|-----------------|-----------------|-----------------|-----------------|
G#|-0-----0-0---0-2-|-3-----3-3---3-4-|-5-----5-5-----5-|-----------------|
D#|-----------------|-----------------|-----------------|-3-----3-3-------|
A#|-----------------|-----------------|-----------------|-----------------|
>   1 + 2 + 3 + 4 +   1 + 2 + 3 + 4 +   1 + 2 + 3 + 4 +   1 + 2 + 3 + 4 +  



Chorus 2 Part 1
F#|-----------------|-----------------|-----------------|-----------------|
C#|-----------------|-----------------|-----------------|-----------------|
G#|-----------------|-0-----0-0---0---|-----------------|-0-----0-0---0---|
D#|-1-----1-3-----3-|---------------3-|-1-----1-3-----3-|---------------3-|
A#|-----------------|-----------------|-----------------|-----------------|
>   1 + 2 + 3 + 4 +   1 + 2 + 3 + 4 +   1 + 2 + 3 + 4 +   1 + 2 + 3 + 4 +   

F#|-----------------|-----------------|-----------------|-----------------|
C#|-----------------|-----------------|-----------------|-----------------|
G#|-----------------|-3---2---0-------|-----------------|-----------------|
D#|-1-----1-3-----3-|-------------3---|-1-----1-1-----1-|-3-----3-3-------|
A#|-----------------|-----------------|-----------------|-----------------|
>   1 + 2 + 3 + 4 +   1 + 2 + 3 + 4 +   1 + 2 + 3 + 4 +   1 + 2 + 3 + 4 +   



Chorus 2 Part 2
F#|-----------------|-----------------|-----------------|-----------------|
C#|-----------------|-----------------|-----------------|-----------------|
G#|-3-----33--------|-5-----550-0-0-2-|-3-----33--------|---------0---2---|
D#|---------3-3-3---|-----------------|---------3-3-3---|-1---3-----------|
A#|-----------------|-----------------|-----------------|-----------------|
>   1 + 2 + 3 + 4 +   1 + 2 + 3 + 4 +   1 + 2 + 3 + 4 +   1 + 2 + 3 + 4 +   

F#|-----------------|-----------------|-----------------|-------------------------|
C#|-----------------|-----------------|-----------------|-------------------------|
G#|-3-----33--------|-5-----550-0-0-2-|-3-----33--------|---------0---------------|
D#|---------3-3-3---|-----------------|---------3-3-3---|-1---3-------------------|
A#|-----------------|-----------------|-----------------|-------------------------|
>   1 + 2 + 3 + 4 +   1 + 2 + 3 + 4 +   1 + 2 + 3 + 4 +   1 + 2 + 3 + 4 + 5 + 6 +  



Bridge
F#|-----------------|-----------------|-----------------|-----------------|
C#|-----------------|-----------------|-----------------|-----------------|
G#|-----------------|-----------------|-0-----0-0---0-2-|-3-----3-3-------|
D#|---------------0-|-1-----1-1---1-3-|-----------------|-----------------|
A#|-3-----3-3---3---|-----------------|-----------------|-----------------|
>   1 + 2 + 3 + 4 +   1 + 2 + 3 + 4 +   1 + 2 + 3 + 4 +   1 + 2 + 3 + 4 +  

F#|-----------------|-----------------|-----------------|-----------------|
C#|-----------------|-----------------|-----------------|-----------------|
G#|-----------------|-----------------|-0-----0-0-------|-----------------|
D#|---------------0-|-1-----1-1---1-3-|-----------------|-3-----3-3-------|
A#|-3-----3-3---3---|-----------------|-----------------|-----------------|
>   1 + 2 + 3 + 4 +   1 + 2 + 3 + 4 +   1 + 2 + 3 + 4 +   1 + 2 + 3 + 4 +  

F#|-----------------|
C#|-----------------|
G#|-----------------|
D#|-1---------------|
A#|-----------------|



Guitar Solo
F#|-----------------|-----------------|-----------------|-----------------|
C#|-----------------|-----------------|-----------------|-----------------|
G#|-0-----0-0---0-2-|-3-----3-3---3-4-|-5-----5-5-----5-|-----------------|
D#|-----------------|-----------------|-----------------|-3-----3-3-------|
A#|-----------------|-----------------|-----------------|-----------------|
>   1 + 2 + 3 + 4 +   1 + 2 + 3 + 4 +   1 + 2 + 3 + 4 +   1 + 2 + 3 + 4 +  

F#|-----------------|-----------------|-----------------|-----------------|
C#|-----------------|-----------------|-----------------|-----------------|
G#|-0-----0-0---0-2-|-3-----3-3---3-4-|-5-----5-5-----5-|-----------------|
D#|-----------------|-----------------|-----------------|-3-----3-3-------|
A#|-----------------|-----------------|-----------------|-----------------|
>   1 + 2 + 3 + 4 +   1 + 2 + 3 + 4 +   1 + 2 + 3 + 4 +   1 + 2 + 3 + 4 +  



Chorus 3 Part 1
F#|-----------------|-----------------|-----------------|-----------------|
C#|-----------------|-----------------|-----------------|-----------------|
G#|-----------------|-0-----0-0---0---|-----------------|-0-----0-0---0---|
D#|-1-----1-3-----3-|---------------3-|-1-----1-3-----3-|---------------3-|
A#|-----------------|-----------------|-----------------|-----------------|
>   1 + 2 + 3 + 4 +   1 + 2 + 3 + 4 +   1 + 2 + 3 + 4 +   1 + 2 + 3 + 4 +   

F#|-----------------|-----------------|-----------------|-----------------|
C#|-----------------|-----------------|-----------------|-----------------|
G#|-----------------|-3---2---0-------|-----------------|-----------------|
D#|-1-----1-3-----3-|-------------3---|-1-----1-1-----1-|-3-----3-3-------|
A#|-----------------|-----------------|-----------------|-----------------|
>   1 + 2 + 3 + 4 +   1 + 2 + 3 + 4 +   1 + 2 + 3 + 4 +   1 + 2 + 3 + 4 +   



Chorus 3 Part 2
F#|-----------------|-----------------|-----------------|-----------------|
C#|-----------------|-----------------|-----------------|-----------------|
G#|-3-----33--------|-5-----550-0-0-2-|-3-----33--------|---------0---2---|
D#|---------3-3-3---|-----------------|---------3-3-3---|-1---3-----------|
A#|-----------------|-----------------|-----------------|-----------------|
>   1 + 2 + 3 + 4 +   1 + 2 + 3 + 4 +   1 + 2 + 3 + 4 +   1 + 2 + 3 + 4 +   

F#|-----------------|-----------------|-----------------|-----------------|
C#|-----------------|-----------------|-----------------|-----------------|
G#|-3-----33--------|-5-----550-0-0-2-|-3-----33--------|---------0---2---|
D#|---------3-3-3---|-----------------|---------3-3-3---|-1---3-----------|
A#|-----------------|-----------------|-----------------|-----------------|
>   1 + 2 + 3 + 4 +   1 + 2 + 3 + 4 +   1 + 2 + 3 + 4 +   1 + 2 + 3 + 4 +   



Chorus 3 Part 3
F#|-----------------|-----------------|-----------------|-----------------|
C#|-----------------|-----------------|-----------------|-----------------|
G#|-3---3-33--------|-5-----550-0-0-2-|-3-----33--------|---------0---2---|
D#|---------3-3-3---|-----------------|---------3-3-3---|-1---3-----------|
A#|-----------------|-----------------|-----------------|-----------------|
>   1 + 2 + 3 + 4 +   1 + 2 + 3 + 4 +   1 + 2 + 3 + 4 +   1 + 2 + 3 + 4 +   

F#|-----------------|-----------------|-----------------|-----------------|
C#|-----------------|-----------------|-----------------|-----------------|
G#|-3-----33--------|-5-----550-0-0-2-|-3-----33--------|-----------------|
D#|---------3-3-3---|-----------------|---------3-3-3---|-----------------|
A#|-----------------|-----------------|-----------------|-----------------|
>   1 + 2 + 3 + 4 +   1 + 2 + 3 + 4 +   1 + 2 + 3 + 4 +   1 + 2 + 3 + 4 +   
comments
We did not receive enough feedback on this tab! Please rate:
print report bad tab
1 2 3 4 5
I want to post or [tab]
guest
You may want to rate the tab now too:
select rating
Please do not post tabs as comments. Select "correction" instead!