Oops, an error
Loading. Please wait.

The Wind Beneath My Wings Bass Tab

version 1
version 1

Whole song

Interactive

1,540 views 3 this week
no commentswrite comment
1 2 3 4 5
3 more votes to show rating
add to favorites
launch autoscroll
font size
0
reset
guitar tuner
Autoscroll
slow
fast
+/-
esc
set tempo
stop
Help us to improve Ultimate-Guitar.com Take our survey!
×
Difficulty
intermediate
This is my first tab =D.  hope everyone likes it.  not too confusing i hope.  rate plz =)=)=)
Intro 0:16
-----------------------------------------------------------------------------|
-----------------------------------------------------------------------------|
-------7777777777777777-------------------------7777777777776666-------------|
----------------------------777777777777777777-------------------------------|

----------------------------------------------------------------------------|
----------------------------------------------------------------------------|
--4444444444444444-------------------4444444444444444-----------------------|
-------------------2222222222222222--------------------2222222222222222-----|

0:42
-----------------------------------------------------------------------------|
-----------------------------------------------------------------------------|
--------------------7777777777777777-----------------7777777777776666--------|
---7777777777777777------------------777777777777777-------------------------|

----------------------------------------------------------------------------|
----------------------------------------------------------------------------|
--4444444444444444-------------------4444444444444444-----------------------|
-------------------2222222222222222--------------------2222222233333333-----|

Chorus 1:11
-----------------------------------------------------------------------------|
-----------------------------------------------------------------------------|
------------77777777-----------------------------77777777--------------------|
---44444444----------7777777777776666---44444444----------7777777777776666---|

-----------------------------------------------------------------------------|
-----------------------------------------------------------------------------|
------------77777777-------------------44444444------------------------------|
---44444444----------77777777777776666----------22222222---------------------|

1:34 Bridge
-----------------------------------------------------------------------------|
-----------------------------------------------------------------------------|
--2222-222-2222-2222222222-2222-222-2222-2222222222-2222-222-2222-2222222222-|
-----------------------------------------------------------------------------|

------------------------------------------------------------------------------|
-----------------1:48---------------------------------------------------------|
--2222-222-2222-7-5-4---44444444444444444--------------------4444444444444444-|
-----------------------------------------2222-222-2222-2222-------------------|

-----------------------------------------------------------------------------|
-----------------------------------------------------------------------------|
-----------------------------------------------------------------------------|
-2222222233333333------------------------------------------------------------|

Back To Chorus 2:01 (minor change at end of first line)
-----------------------------------------------------------------------------|
-----------------------------------------------------------------------------|
------------77777777-----------------------------77777777--------------------|
---44444444----------7777777777776666---44444444----------77777777-5-3-2-----|

-----------------------------------------------------------------------------|
-----------------------------------------------------------------------------|
------------77777777-------------------44444444------------------------------|
---44444444----------77777777777776666----------22222222---------------------|

Power Chord Change 2:27
-----------------------------------------------------------------------------|
-----------------------------------------------------------------------------|
--2-1-4-2-----1-4-2----------------1-2-1-4-2---1-4-2-------------------------|
---------------------2-1-4-22-1--4--------------------2-1-4-22-1—4-----------|

Solo 2:41	   Slow Down 2:56
-----------------------------------------------------------------------------|
-----------------------------------------------------------------------------|
------------------5------2-------------5----2---------------5--------------5-|
---2-------2-----------------2-----2----------------2--------------2---------|

Speed Up Again 3:10
-----------------------------------------------------------------------------|
-----------------------------------------------------------------------------|
-------------------7777777777777777----------------7777777788888888----------|
--7777777777777777------------------77777777777777---------------------------|

Chorus Again 3:24 (2 Frets Down)
-----------------------------------------------------------------------------|
-----------------------------------------------------------------------------|
------------55555555-----------------------------55555555--------------------|
---22222222----------55555555555554444---22222222----------55555555-3-1-0----|

-----------------------------------------------------------------------------|
-----------------------------------------------------------------------------|
------------55555555-------------------22222222------------------------------|
---22222222----------5555555555554444----------00000000----------------------|

Chorus Continues Like the Original 3:49
-----------------------------------------------------------------------------|
-----------------------------------------------------------------------------|
------------77777777-----------------------------77777777--------------------|
---44444444----------7777777777776666---44444444----------77777777-5-3-2-----|

-----------------------------------------------------------------------------|
-----------------------------------------------------------------------------|
------------77777777-------------------44444444------------------------------|
---44444444----------77777777777776666----------22222222---------------------|

Ending 4:15-4:45
-----------------------------------------------------------------------------|
-----------------------------------------------------------------------------|
---2-1-4-2---1-4-2---2---4----2-1-4-2--1-4-2--2--4--2-1-4-2--1-4-2--2--4-----|
-----------------------------------------------------------------------------|

-----------------------------------------------------------------------------|
-----------------------------------------------------------------------------|
-----------------------------------------------------------------------------|
---4-4444-44-44-4444---------------------------------------------------------|
Suggest correction
Give kudos to tab author, rate the tab!
1 2 3 4 5
comments
print report bad tab
guest
You may want to rate the tab now too:
select rating
Wanna post a correction for this tab? Suggest correction