Oops, an error
Loading. Please wait.

The Wind Beneath My Wings tab

version 1
version 1

Whole song

Interactive

8,370 views 6 this week
no commentswrite comment
1 2 3 4 5
1 last vote to show rating
add to favorites
×
Save as Personal and add changes to this tab that will be seen only by you. Learn more ›
×
You can save this tab as Personal to edit and correct it or add notes. All changes will be seen only by you. Learn more »
launch autoscroll
font size
0
reset
how to read this tab
guitar tuner
edit
Autoscroll
slow
fast
+/-
esc
set tempo
stop
*************************************************************************
* SONATA ARCTICA - THE WIND BENEATH MY WINGS (From the EP: ORIENTATION) *
*************************************************************************
 Music and Words By: Larry Henley/Jeff Silbar

Transcribed By: Niclas Buss
Day tabbed: 1.3.2002
Homepage: http://www.metalprovider.com/thedarktower/enter.htm
email: thetabber@yahoo.se

Please mail me if you can find mistakes!

-------------------------------------------
"This is a cover song originally made by
 Bette Midler".
-------------------------------------------

 Tune down 1/2 step!  

                     Verse 1
E--------------------Dist.Guitar----------------------------------------------------|
B------------------|----------------------------------------------------------------|
G--Keyboard-Intro--|----------------------------------------------------------------|
D-----(15-sec)-----|---3-------------------------------5---------------------------5|
A------------------|---3---------------------------3\--3--3-3-3-3-3-3-3-3-3-3-3-3--3|
E----------------------1--1-1-1-1-1-1-1-1-1-1-1-1--1\--3----------------------------|
                         pm......................|       pm......................|

                                                                                 Ver
E-----------------------------------------------------------------------------------|
B------------------------------------------------------------------------------|--5-|
G-----------------------10----9~----7----7------------/-7----7-----------------|--5-|
D\--3-------------------10---10~----7----7-\-5----5-\-/-7----7-\-5----5-\------|--5-|
A\--3--------------------8-8--7~----5----5-\-5----5-\-/-5----5-\-5----5-\------|--3-|
E---1--1-1-1-1-1-1-1-1---------------------\-3----3-\----------\-3----3-\-3-3-------|
      pm..............|   pm                                             pm...|

 se 2
E-----------------------------------------------------------------------------------|
B-----5----------5-----5-----------------------------------------5-----5----------5-|
G-----5----------5-----5-----------------------------------------5-----5----------5-|
D-----5----------5-----5-----5\--3-------------------------------5-----5----------5-|
A-3-3-3-3-3-3-3--3-3-3-3-3-3-3\--3---------------------------3\--3-3-3-3-3-3-3-3--3-|
E--------------------------------1--1-1-1-1-1-1-1-1-1-1-1-1--1\---------------------|
 pm..| pm......|  pm..| pm..|      pm......................|      pm..| pm......|

E-----------------------------------------------------------------------------------|
B-----5-----------------------------------------------------------------------------|
G-----5---------------------------10---\-9~---7-----7-------------/-7----7----------|
D-----5-----5\-3------------------10---\10~---7-----7--\-5----5-\-/-7----7-\-5----6~|
A-3-3-3-3-3-3\-3-------------------8-8-\-7~---5-----5--\-5----5-\-/-5----5-\-5----7~|
E--------------1--1-1-1-1-1-1-1-1----------------------\-3----3-\----------\-3----4~|
 pm..| pm..|     pm..............|  pm

             Chorus (1)
E-----------------------------------------------------------------------------------|
B----------|------------------------------------------------------------------------|
G----------|---------10--------9----------\-5-----5-\-4---------10-----10---10---\-5|
D--6\------|---7-----10-------10-----10---\-5-----5-\-5----7----10-----10---10---\-5|
A--7\------|---7------8--8--8--8-8-8-8--8-\-3-----3-\-2----7-----8-8-8-8--8-8--8-\-3|
E--4\-4-4------5-------------------------------------------5------------------------|
     pm..|              pm...|  pm..|  pm                         pm..|  pm   pm

                                                                   Verse 3
E-----------------------------------------------------------------------------------|
B----------------------------------------------------------------|------------------|
G---5-\-4--------10--------9-----------\-5-----5-\-4----7--------|------------------|
D---5-\-5----7---10-------10-----10----\-5-----5-\-5----7----5---|------------------|
A---3-\-2----7----8--8--8--8-8-8-8--8--\-3-----3-\-2----5----5---|--3-3-3-3--3-3-3--|
E------------5-----------------------------------------------3----------------------|
                    pm...|  pm..|  pm                              pm...............

E-----------------------------------------------------------------------------------|
B-----------------------------------------------------------------------------------|
G-----------------------------------------------------------------------------------|
D-----------------------------------------------------------------------------------|
A-3-3-3-3--3-3-3-3-3-3-3-3-3-3-3-3--3-3-3-3--3-3-3--3-3-3-3-3-3-3-3-3-3-3-3--3-3-3-3|
E-----------------------------------------------------------------------------------|
 ...................................................................................

E-----------------------------------------------------------------------------------|
B-----------------------------------------------------------------------------------|
G---------------------------------------------------10-\-9---7~---------------------|
D---------------------------------------------------10-\-10--7~---------------------|
A--3-3-3--3-3-3-3-3-3-3-3-3-3-3-3--3-3-3-3--3-3-3----8-\-7---5~---------------------|
E----------------------------------------------------------------\-3-3-3-3--3-3-3--3|
 ................................................|                pm................

                                                     Chorus (2)
E-----------------------------------------------------------------------------------|
B--------------------------------------------------|--------------------------------|
G------------------------/--7----------------------|--------10-----10---10-----5----|
D------------------------/--7-----5-------6~---6\--|---7----10-----10---10-----5----|
A------------------------/--5-----5-------7~---7\--|---7-----8-8-8--8-8--8-8---3----|
E-3-3-3--3-3-3-3-3-3-3-3----------3---3-3-4~---4\------5----------------------------|
 .......................|            pm..|                    pm..|  pm   pm

E-----------------------------------------------------------------------------------|
B-----------------------------------------------------------------------------------|
G--5-\-4---------10-----10---10-----5---\-4--2-------------10-----10---10-----5----5|
D--5-\-5----7----10-----10---10-----5---\-5--2--5--/--7----10-----10---10-----5----5|
A--3-\-2----7-----8-8-8-8--8--8-8---3---\-2--0--5--/--7-----8-8-8--8-8--8-8---3----3|
E-----------5-----------------------------------3--/--5-----------------------------|
                   pm..|  pm   pm                            pm..|  pm   pm

                    Interlude
E-----------------------------------------------------------------------------------|
B-----------------|-----------3-------------3---------------------------8--7-\--8-/-|
G-\-4----7--------|*--5---4---2---5-----4---2---5-----------------------7--7-\--7-/-|
D-\-5----7----5---|*--2---2---2---2-----2---2---2-----5---4---7---5-----7--7-\--7-/-|
A-\-2----5----5---|-----0---0---0---0-----0---0---0---7-7-7-7-7-7-7-7---5---------/-|
E-------------3---------------------------------------------------------------------|
                       pm  pm  pm  pm    pm  pm  pm    pm  pm  pm  pm

    x2                     Guitar Solo
E---------------------------------15-17-17b(18)r17~--p15-\13h15~--------------------|
B-7~---|-----------------|------15--------------------------------13b(15)--r-13-13~-|
G-8~--*|--Keyboard-Solo--|----15----------------------------------------------------|
D-9~--*|-----------------|--17------------------------------------------------------|
A-6~---|-----------------|----------------------------------------------------------|
E-----------------------------------------------------------------------------------|
 
                                  |---3---|
E-----------------------------------------------------------------------------------|
B--10h11p10-----------------------------16-16b(17)-r16-16--16p15h16~--16-\-13~---13-|
G------------10-----------15-12~--12-15---------------------------------------------|
D----------------10-/-12------------------------------------------------------------|
A-----------------------------------------------------------------------------------|
E-----------------------------------------------------------------------------------|

E-----------------------------------------------------------------------------------|
B-15-15b(16)r15--13-p11h13-\-/13~-13--13-15-16-15b(16)r15-p13p11--13-/-18~--18b(19)~|
G-----------------------------------------------------------------------------------|
D-----------------------------------------------------------------------------------|
A-----------------------------------------------------------------------------------|
E-----------------------------------------------------------------------------------|

        Chorus (3)
E-----------------------------------------------------------------------------------|
B--\--|-----------------------------------------------------------------------------|
G-----|-------8-----8---8------------------------------8-----8---8------------------|
D-----|--5----8-----8---8------\-8--\-8------7--\-5----8-----8---8------\-8----7---\|
A-----|--5----6-6-6-6-6-6--6-6-\-8--\-8------8--\-5----6-6-6-6-6-6--6-6-\-8----8---\|
E--------3---------------------\-6--\-6--6-6-5--\-3---------------------\-6----5-5-\|
               pm..| pm   pm..|         pm..|           pm..| pm   pm..|        pm

E-----------------------------------------------------------------------------------|
B------------------------------------------------------------------|----------------|
G--------------------8-----8---8-------------------------/-5-------|---Chorus-(2)---|
D-5----\-3-\---/5----8-----8---8------\-8--\-8------7----/-5----3--|----------------|
A-5----\-3-\---/5----6-6-6-6-6-6--6-6-\-8--\-8------8----/-3----3--|----------------|
E-3--3-\-1-\---/3---------------------\-6--\-6--6-6-5--5--------1-------------------|
    pm                pm..| pm   pm..|         pm..|  pm

                                           x3
E---------------------------------------------------------------------------------||
B-----------3-------------3-------------------|-----------------------------------||
G*--5---4---2---5-----4---2---5--------------*|-----------------------------------|| end
D*--2---2---2---2-----2---2---2-----3----5---*|--5-/-7-7-7-7--7-7--7--7--7--7--\--||
A-----0---0---0---0-----0---0---0---3----5----|--5-/-7-7-7-7--7-7--7--7--7--7--\--||
E-----------------------------------1----3-------3-/-5-5-5-5--5-5--5--5--5--5--\--||
     pm  pm  pm  pm    pm  pm  pm

-----------------------------------------------------------------------------------------

  Rhythm Guitar during Keyboard Solo
E--------------------------------------------------------------------||
B--------------------------------------------------------------------||
G--------------/--8-----5---/--7-------------/---8---\--5-----5--\---|| end
D---5-----5----/--8-----5---/--7----5-----5--/---8---\--5-----5--\---||
A---5-----5----/--6-----3---/--5----5-----5--/---6---\--3-----3--\---||
E---3-----3-------------------------3-----3--------------------------||

  Rhythm Guitar during Guitar Solo (at 3:10)
E--------------------------------------------------------||
B--------------------------------------------------------||
G---5------5---------/--5-----5--------------------------|| end
D---5------5-\-3-----/--5-----5-\-3-----3\---4~---/-4-/--||
A---3------3-\-3-----/--3-----3-\-3-----3\---5~---/-5-/--||
E------------\-1----------------\-1-----1\---2~---/-2-/--||

-----------------------------------------------------------------------------------------

=======================
=TABLATURE EXPLANATION=
=======================

A.H. = Artificial Harmonic

pm..| = Palm mute

h = hammer on

p = pull off

/ = slide up

\ = slide down

~ = Vibrato

b() = Bend

x\ = Pick Slide

--------
--------
---12--- = Tremolo pick
----/---
----/---
----/---

---.---
--12--- = Staccato
-------
-------
-------

|     |
|     |
|*   *| = repeat from * to *
|*   *| 
|     |

            
            
Suggest correction
Creating personal tab
Creating personal tab
You can edit any tab online and save it as your Personal.

You can edit, replace or remove any tab part or add personal notes – all changes will be seen only by you.

Personal tabs can be accessed anytime from any device, even offline.
Learn more »
Give kudos to tab author, rate the tab!
1 2 3 4 5
comments
print report bad tab
guest
Wanna post a correction for this tab? Suggest correction