Oops, an error
Loading. Please wait.

Weballergy Bass Tab

version 2
version 2

Whole song

Interactive

224 views 1 this week
no commentswrite comment
1 2 3 4 5
please rate
add to favorites
launch autoscroll
font size
0
reset
guitar tuner
Autoscroll
slow
fast
+/-
esc
set tempo
stop
Help us to improve Ultimate-Guitar.com Take our survey!
×
Author
Tuning
D# G# C# F# A# D#
#----------------------------------PLEASE NOTE---------------------------------#
#This file is the author's own work and represents their interpretation of the #
#song. You may only use this file for private study, scholarship, or research. #
#------------------------------------------------------------------------------#

WEBALLERGY (Bassline)
As recorded by Sonata Arctica
(From the 2001 Album SILENCE)

Transcribed by Ivan - (peekaboo104@hotmail.com)
	

Words and Music by Toni Kakko

Gtr I (Eb Ab Db Gb) - 'Untitled'

   Intro
    Moderately Fast Q=165
   4/4
    Gtr I
    S S S S S S S S S S S S S S S S   S S S S S S S S S S S S S S S S
||----------------------------------|---------------------------------|
||o---------------------------------|---------------------------------|
||o-6-6-6-6-6-6-6-6-6-6-6-6-6-6-6-6-|---------------------------------|
||----------------------------------|-6-6-6-6-6-6-6-6-6-6-6-6-6-6-6-6-|


  S S S S S S S S S S S S S S S S   S S S S S S S S S S S S S S S S
|---------------------------------|----------------------------------|
|---------------------------------|----------------------------------|
|-3-3-3-3-3-3-3-3-3-3-3-3-3-3-3-3-|----------------------------------|
|---------------------------------|-4-4-4-4-4-4-4-4-3-3-3-3-3-3-3-3--|


  S S S S S S S S S S S S S S S S
|---------------------------------|
|---------------------------------|
|---------------------------------|
|-1-1-1-1-1-1-1-1-1-1-1-1-1-1-1-1-|


 1.                                  2.
  S S S S S S S S S S S S S S S S     S S S S S S S S H
|----------------------------------||----------------------||
|---------------------------------o||----------------------||
|-1-1-1-1-1-1-1-1-5-5-5-5-5-5-5-5-o||-1-1-1-1-1-1-1-1-1----||
|----------------------------------||----------------------||


   1st and 2nd Verses
    E E S S E E E S S E   E E S S E E E S S E
||----------------------|---------------------|
||o---------------------|---------------------|
||o---------------------|---------------------|
||--5-5-5-5-5-5-5-5-5-5-|-0-0-0-0-0-0-0-0-0-0-|


  E E S S E E E S S E   E E E S S E E S S E
|---------------------|---------------------|
|---------------------|---------------------|
|---------------------|-3-3-3-3-3-2-2-2-2-2-|
|-1-1-1-1-1-1-1-1-1-1-|---------------------|


  E E S S E E E S S E   E E E S S E E E S S
|---------------------|---------------------|
|---------------------|---------------------|
|---------------------|-3-3-3-3-3-3-3-3-3-3-|
|-5-5-5-5-5-5-5-5-5-5-|---------------------|


  E E S S E E E S S E   E E E S S E S S S S S S
|---------------------|---------------------------||
|---------------------|---------------------------||
|---------------------|-3-3-3-3-3-2-2-2-2-2-2-2---||
|-3-3-3-3-3-3-3-3-3-3-|---------------------------||


  E E S S S S E E E E   E E S S S S E E E E
|---------------------|---------------------|
|---------------------|---------------------|
|---------------------|---------------------|
|-5-5-5-5-5-5-5-5-5-5-|-0-0-0-0-0-0-0-0-0-0-|


  E E S S S S E E E E   E E S S S S E E E E
|---------------------|----------------------|
|---------------------|----------------------|
|---------------------|-3-3-3-3-3-3-2-2-2-2--|
|-1-1-1-1-1-1-1-1-1-1-|----------------------|


  E E S S S S E E E E   E E S S S S E E E E
|---------------------|---------------------|
|---------------------|---------------------|
|---------------------|-3-3-3-3-3-3-3-3-3-3-|
|-5-5-5-5-5-5-5-5-5-5-|---------------------|


  E E S S S S E E E E   E E E E E S S S S S S
|---------------------|-----------------------||
|---------------------|-----------------------||
|---------------------|-3-3-3-3---------------||
|-3-3-3-3-3-3-3-3-3-3-|---------3-3-3-3-3-3-3-||


 Bridge
  $
  S S S S S S S S S S S S S S S S   S S S S S S S S S S S S S S S S
|---------------------------------|---------------------------------|
|---------------------------------|---------------------------------|
|-2-2-2-2-2-2-2-2-2-2-2-2-2-2-2-2-|---------------------------------|
|---------------------------------|-5-5-5-5-5-5-5-5-5-5-5-5-5-5-5-5-|


  S S S S S S S S S S S S S S S S   S S S S S S S S S S S S S S S S
|---------------------------------|------------------------------------|
|---------------------------------|------------------------------------|
|-5-5-5-5-5-5-5-5-5-5-5-5-5-5-5-5-|-5-5-5-5-5-5-5-5-4-4-4-4-4-4-4-4----|
|---------------------------------|------------------------------------|


  S S S S S S S S S S S S S S S S   S S S S S S S S S S S S S S S S
|---------------------------------|---------------------------------|
|---------------------------------|---------------------------------|
|-2-2-2-2-2-2-2-2-2-2-2-2-2-2-2-2-|---------------------------------|
|---------------------------------|-5-5-5-5-5-5-5-5-5-5-5-5-5-5-5-5-|


  S S S S S S S S S S S S S S S S   S S S S S S S S  S  S  S  S  S  S  S  S
|---------------------------------|---------------------------------------------||
|---------------------------------|--------------------------------------------o||
|-5-5-5-5-5-5-5-5-5-5-5-5-5-5-5-5-|-7-7-7-7-7-7-7-7-10-10-10-10-10-10-10-10----o||
|---------------------------------|---------------------------------------------||


   Chorus
    $$
    S S S S S S S S S S S S S S S S   S S S S S S S S S S S S S S S S
||----------------------------------|---------------------------------|
||o---------------------------------|---------------------------------|
||o-3-3-3-3-3-3-3-3-3-3-3-3-3-3-3-3-|---------------------------------|
||----------------------------------|-3-3-3-3-3-3-3-3-3-3-3-3-3-3-3-3-|


  S S S S S S S S S S S S S S S S   S S S S S S S S S S S S S S S S
|---------------------------------|-----------------------------------|
|---------------------------------|-----------------------------------|
|---------------------------------|-----------------------------------|
|-5-5-5-5-5-5-5-5-5-5-5-5-5-5-5-5-|-1-1-1-1-1-1-1-1-1-1-1-1-1-1-1-1---|


                                   1.
                           To Coda
                           To Coda
  S S S S S S S S S S S S S S S S   S S S S S S S S S S S S S S S S
|---------------------------------|----------------------------------||
|---------------------------------|---------------------------------o||
|-5-5-5-5-5-5-5-5-5-5-5-5-5-5-5-5-|---------------------------------o||
|---------------------------------|-3-3-3-3-3-3-3-3-3-3-3-3-3-3-3-3--||


 2.
  S S S S S S S S S S S S S S S S
|---------------------------------||
|---------------------------------||
|---------------------------------||
|-3-3-3-3-3-3-3-3-3-3-3-3-3-3-3-3-||


   Guitar Break
    S S S S q  S S S S q    S S S S S S S S S S S S S S S S
||------------------------|---------------------------------|
||o-----------------------|---------------------------------|
||o--------------------2--|-------------------------2-------|
||--5-2-2-2-4--5-2-2-2----|-5-2-2-2-4-2-2-2-5-2-2-2---4-4-4-|


  S S S S q  S S S S q    S S S S S S S S S S S S S S S S
|-----------------------|------------------------------------|
|-----------------------|------------------------------------|
|-4-0-0-0-2--4-0-0-0-5--|-4-0-0-0-2-0-0-0-4-0-0-0-2----------|
|-----------------------|---------------------------4-4-4----|


  S S S S q  S S S S q    S S S S S S S S S S S S S S S S
|-----------------------|---------------------------------|
|-----------------------|---------------------------------|
|--------------------2--|-------------------------2-------|
|-2-2-2-2-4--5-2-2-2----|-5-2-2-2-4-2-2-2-5-2-2-2---4-4-4-|


                         1.
  S S S S q  S S S S q    S S S S S S S S q  Q
|-----------------------|-------------------------||
|-----------------------|-------------------------||
|-4-0-0-0-2--4-0-0-0-5--|-4-0-0-0-2-0-0-0-4--1----||
|-----------------------|-------------------------||


 Guitar Solo I
  S S S S S S S S S S S S S S S S   S S S S S S S S S S S S S S S S
|---------------------------------|---------------------------------|
|---------------------------------|---------------------------------|
|-2-2-2-2-2-2-2-2-2-2-2-2-2-2-2-2-|-3-3-3-3-3-3-3-3-3-3-3-3-3-3-3-3-|
|---------------------------------|---------------------------------|


  S S S S S S S S S S S S S S S S   S S S S S S S S S S S S S S S S
|---------------------------------|------------------------------------|
|---------------------------------|------------------------------------|
|-3-3-3-3-3-3-3-3-3-3-3-3-3-3-3-3-|-2-2-2-2-2-2-2-2-2-2-2-2-2-2-2-2----|
|---------------------------------|------------------------------------|


  S S S S S S S S S S S S S S S S   S S S S S S S S S S S S S S S S
|---------------------------------|---------------------------------|
|---------------------------------|---------------------------------|
|-5-5-5-5-5-5-5-5-5-5-5-5-5-5-5-5-|-7-7-7-7-7-7-7-7-7-7-7-7-7-7-7-7-|
|---------------------------------|---------------------------------|


  S S S S S S S S S S S S S S S S   S S S S S S S S S S S S S S S S
|---------------------------------|-------------------------------------||
|---------------------------------|------------------------------------o||
|---------------------------------|------------------------------------o||
|-3-3-3-3-3-3-3-3-3-3-3-3-3-3-3-3-|-3-3-3-3-3-3-3-3-3-3-3-3-3-3-3-3-----||


                          Synth Solo
  2.
  S S S S S S S S q  Q     S S S S S S S S S S S S S S S S
|-----------------------||---------------------------------|
|-----------------------||---------------------------------|
|-4-0-0-0-2-0-0-0-4--1--||-2-2-2-2-2-2-2-2-2-2-2-2-2-2-2-2-|
|-----------------------||---------------------------------|


  S S S S S S S S S S S S S S S S   S S S S S S S S S S S S S S S S
|---------------------------------|----------------------------------|
|---------------------------------|----------------------------------|
|-3-3-3-3-3-3-3-3-3-3-3-3-3-3-3-3-|-3-3-3-3-3-3-3-3-3-3-3-3-3-3-3-3--|
|---------------------------------|----------------------------------|


  S S S S S S S S S S S S S S S S   S S S S S S S S S S S S S S S S
|---------------------------------|---------------------------------|
|---------------------------------|---------------------------------|
|-2-2-2-2-2-2-2-2-2-2-2-2-2-2-2-2-|-5-5-5-5-5-5-5-5-5-5-5-5-5-5-5-5-|
|---------------------------------|---------------------------------|


  S S S S S S S S S S S S S S S S   S S S S S S S S S S S S S S S S
|---------------------------------|------------------------------------|
|---------------------------------|------------------------------------|
|-7-7-7-7-7-7-7-7-7-7-7-7-7-7-7-7-|------------------------------------|
|---------------------------------|-3-3-3-3-3-3-3-3-3-3-3-3-3-3-3-3----|


                                                              2/4
  S S S S S S S S S S S S S S S S    S S S S q  E S S S S e    E E E E
|---------------------------------||------------------------||---------||
|---------------------------------||------------------------||-------4-||
|---------------------------------||----------------------2-||-----4---||
|-3-3-3-3-3-3-3-3-3-3-3-3-3-3-3-3-||-5-2-2-2-4----5-2-2-2---||-2-5-----||


 Lead Break
 4/4
  E E S S E E E S S E   E E S S E E E S S E
|---------------------|---------------------|
|---------------------|---------------------|
|---------------------|---------------------|
|-5-5-5-5-5-5-5-5-5-5-|-3-3-3-3-3-3-3-3-3-3-|


  E E E S S E E E S S   E E E S S E E S S E
|---------------------|-----------------------|
|---------------------|-----------------------|
|-3-3-3-3-3-3-3-3-3-3-|-3-3-3-3-3-2-2-2-2-2---|
|---------------------|-----------------------|


  E E S S E E E S S E   E E S S E E E S S E
|---------------------|---------------------|
|---------------------|---------------------|
|---------------------|---------------------|
|-5-5-5-5-5-5-5-5-5-5-|-3-3-3-3-3-3-3-3-3-3-|


  E E E S S E E E S S   E E E S S E E S S E
|---------------------|---------------------||
|---------------------|---------------------||
|-3-3-3-3-3-3-3-3-3-3-|-3-3-3-3-3-2-2-2-2-2-||
|---------------------|---------------------||


 Guitar Solo II
  E E S S E E E S S E   E E S S E E E S S E
|---------------------|---------------------|
|---------------------|---------------------|
|---------------------|---------------------|
|-5-5-5-5-5-5-5-5-5-5-|-3-3-3-3-3-3-3-3-3-3-|


  E E E S S E E E S S   E E E S S E E S S E
|---------------------|---------------------|
|---------------------|---------------------|
|-3-3-3-3-3-3-3-3-3-3-|-3-3-3-3-3-2-2-2-2-2-|
|---------------------|---------------------|


  E E S S E E E S S E   E E S S E E E S S E
|---------------------|---------------------|
|---------------------|---------------------|
|---------------------|---------------------|
|-5-5-5-5-5-5-5-5-5-5-|-3-3-3-3-3-3-3-3-3-3-|


                           D.S. al Coda
  E E E S S E E E S S   H    E E S S E
|---------------------|-----------------||
|---------------------|-----------------||
|-3-3-3-3-3-3-3-3-3-3-|-----------------||
|---------------------|------3-3-3-3-3--||


                                    Outro
  &          D.S.S. al Dbl. Coda  &&
  S S S S S S S S S S S S S S S S    S S S S q  E S S S S e
|---------------------------------||------------------------|
|---------------------------------||------------------------|
|---------------------------------||----------------------2-|
|-3-3-3-3-3-3-3-3-3-3-3-3-3-3-3-3-||-5-2-2-2-4----5-2-2-2---|


  E E E E E E E E   E E E E q   Q
|-----------------|-----------------*|
|-------3-4-----3-|-4-----3-4\------*|
|-----4-------4---|-----4-----------*|
|-2-5-------5-----|---5-------------*|



Duration Legend
---------------
W - whole; H - half; Q - quarter; E - 8th; S - 16th; T - 32nd; X - 64th; a - acciaccatura
+ - note tied to previous; . - note dotted; .. - note double dotted
Uncapitalized letters represent notes that are staccato (1/2 duration)
Irregular groupings are notated above the duration line
Duration letters will always appear directly above the note/fret number it represents the
duration for.  Duration letters with no fret number below them represent rests.  Multi-
bar rests are notated in the form Wxn, where n is the number of bars to rest for.  Low
melody durations appear below the staff

Tablature Legend
----------------
 h   - hammer-on
 p   - pull-off
 b   - bend
 pb  - pre-bend
 r   - bend release (if no number after the r, then release immediately)
 /\  - slide into or out of (from/to "nowhere")
 s   - legato slide
 S   - shift slide
 - natural harmonic
[n]  - artificial harmonic
n(n) - tapped harmonic
 ~   - vibrato
 tr  - trill
 T   - tap
 TP  - trem. picking
 PM  - palm muting
\n/  - tremolo bar dip; n = amount to dip
 \n  - tremolo bar down
 n/  - tremolo bar up
/n\  - tremolo bar inverted dip
 =   - hold bend; also acts as connecting device for hammers/pulls
 <> - volume swell (louder/softer)
 x   - on rhythm slash represents muted slash
 o   - on rhythm slash represents single note slash

Misc Legend
-----------
 |  - bar
||  - double bar
||o - repeat start
o|| - repeat end
*|  - double bar (ending)
 :  - bar (freetime)
 $  - Segno
 &  - Coda
Tempo markers -  = BPM(8/16=s8/s16), where s8 = swing 8ths, s16 = swing 16ths

Suggest correction
What's this?
You can suggest a correction to this tab. Community and Mods will review your correction and vote to approve or reject it.
comments
We did not receive enough feedback on this tab! Please rate:
print report bad tab
1 2 3 4 5
guest
You may want to rate the tab now too:
select rating
Please do not post tabs as comments. Select "correction" instead!