Oops, an error
Loading. Please wait.

White Pearl Black Oceans Bass Tab

version 1
version 1

Whole song

Interactive

572 views 1 this week
no commentswrite comment
1 2 3 4 5
please rate
add to favorites
launch autoscroll
font size
0
reset
guitar tuner
Autoscroll
slow
fast
+/-
esc
set tempo
stop
Help us to improve Ultimate-Guitar.com Take our survey!
×
Author
 Tuning: Drop D
  /= slide down
  
  G|------------------|-------------------|
  D|------------------|-------------------|
  A|-4-4-------0-2----|-4-4-------0-2-----|
  D|-----6-2-1----2/6-|-----6-2-1----2/6-4|
  
  G|-----------------|----------------|-----------------|-----------|
  D|-----------------|----------------|-----------------|-----------|
  A|-44444444--------|44444444--------|-----------------|--------0-2|
  D|---------22222222|--------22222222|44444444-77777777|44444444---|
  
  G|------------------|
  D|------------------|
  A|-2-----4-----0---2|
  D|--------------4-2-|
  
  G|-----------------|----------------|-----------------|-----------|
  D|-----------------|----------------|-----------------|-----------|
  A|-44444444--------|44444444--------|-----------------|--------0-2|
  D|---------22222222|--------22222222|44444444-77777777|44444444---| 2x
  
  G|-------------|
  D|-------------|
  A|-2-2--54-0-5-|
  D|----4---5---4|
  
  G|----------|
  D|----------|
  A|-0---4----|
  D|---------4|
  
  G|----------|
  D|----------|
  A|--0-2-00--|
  D|-4------22| 4x
  
  G|-----------------|----------------|-----------------|----------|
  D|-----------------|----------------|-----------------|----------|
  A|-44444444--------|44444444--------|-----------------|---------2|
  D|---------22222222|--------22222222|44444444-77777777|44444444--| 2x
  
  G|-------------|
  D|-------------|
  A|-2-2--54-0-5-|
  D|----4---5---4|
  
  G|-------------|------------|------------|---------------|
  D|-------------|------------|------------|--------------2|
  A|-------------|------------|22222-55555-|22222-55555-5--|
  D|-44444-77777-|44444-77777-|------------|---------------|
 
 Sorry, don't have whole thing :(
Suggest correction
Give kudos to tab author, rate the tab!
1 2 3 4 5
comments
print report bad tab
guest
You may want to rate the tab now too:
select rating
Please do not post tabs as comments. Select "correction" instead!