Oops, an error
Loading. Please wait.

Wolf And Raven Bass Tab

version 1
version 1

Whole song

1,621 views 1 this week
no commentswrite comment
1 2 3 4 5
3 more votes to show rating
add to favorites
launch autoscroll
font size
0
reset
guitar tuner
Autoscroll
slow
fast
+/-
esc
set tempo
stop
Help us to improve Ultimate-Guitar.com Take our survey!
×
G----~--------------~------------~|
D----~------~-------~-----~------~|
A---0~------~------5~-----~-----0~|
E----------1~------------5~-------|

                   (fin Intro)  Verso 1
G--------------~--------------||----------------------------------------------------|
D------~-------~-------~~-----||*---------------------------------------------------|
A------~------5~-------~~-----||*--0-0-0-0-0-0-0-0-0-0-0-0-0-0-0-0-0-0-0-0-0-0-0-0-0|
E-----1~--------------5~~-----||----------------------------------------------------|
                                 

G-----------------------------------------------------------------------------------|
D---------------------------------------------------------~~------------------------|
A-0-0-0-0-0-0-0-0-0-0-0-0-0-0-0-0-0-0-0-0-0--2-/-3--0-----~~---0-0-0-0-0-0-0-0-0-0-0|
E--------------------------------------------------------2~~------------------------|


                                                                                   
G--------------------------------------------------------------------------------|
D-----------------------------------------------------------------------------~--|
A-0-0-0-0-0-0-0-0-0-0-0-0-0-0-0-0-0-0-0-0-0-0-0-0-0-0-0-0-0-0---2---3--0------~--|
E----------------------------------------------------------------------------2~--|

  bridge 1                                 
G--7--\-5-5~--5-7-9--5-7-9--9--7~-/-19~~---|
D------------------------------------------|
A------------------------------------------|
E------------------------------------------|

                                  
G|--Verso-1--|
D|-----------|
A|-----------|
E|-----------|
                                     
      bridge 2                             
G|--7--\-5-5~--5-7-9--5-7-9--5-7-9--5~~---|
D|----------------------------------------|
A|----------------------------------------|
E|----------------------------------------|

      Coro
G|-------------------------~--------------------------~---|--------------|--Verso|
D|-------------------------~--------------------------~---|---------~~---|-------|
A|----------------5---3---2~-----------------5---3---2~---|--3-2----~~---|-------|
E|---5---3---1-----------------5---3---1------------------|--------1~~---|-------|

                                                          
G|--Bridge-(2)--|--Coro----|-------------------------|
D|--------------|----------|-------------------------|
A|--------------|----------|-------------------------|
E|--------------|----------|--5-3-0\--7-5-4\---5\----|

solo guitarra y telado
G----~--------------~------------~-----------------------------------------------|
D----~------~-------~-----~------~-----------------------------------------------|
A---0*~------~------5*~-----~-----0*~-------------5*------------0*---------------|
E----------1*~------------5*~-----------1*--------------5*-----------------------|


G---------------------------------------------------2---2---2h3-----2---2---2h3-----------|
D-------------------------------------------------0---0---0-------0---0---0---------------|
A--0\---0\----4\---4\----0----0----4\--0---4\---------------------------------------0----0|
E-----------------------------------------------------------------------------------------|
                                 

G-------------------------------------------2---2---2h3----------9------------------|
D-----------------------------------------0---0---0--------0-7h8---0-7h8------------|
A-----4\---4\----0----0----4\--0---4\----------------------------------------0----0-|
E-----------------------------------------------------------------------------------|
                                     

G---------------------------------------2---2---2h3-----2---2---2h3-----------------|
D-------------------------------------0---0---0-------0---0---0---------------------|
A--4\---4\---0----0----4\--0---4\---------------------------------------0----0----4\|
E-----------------------------------------------------------------------------------|
                                     


G-------------------------------------------------------------~--|
D------------------------------8--7--5------------------------~--|
A--4\---0----0----4\--0---4\-----------8-7-5-4--1---------4---~--|
E-------------------------------------------------5-3-1-0----5~--|

 
G|----~-------------------------~----------|
D|----~-------~-------~-------~-----------*|
A|----5~-------~-------~---------5~-------*|
E|-------------6~-------3~-----------------| 

G----~~---------------~~---|
D---10~~----10---9p7h9~~---|
A--------------------------|
E--------------------------|

				                      
G|--Coro---(x2)--|
D|---------------|
A|---------------|
E----------------|

   
G----~-------------~------~-------~--------------~------~-------------||
D----~------~------~------~-------~------~-------~------~-------------||
A---0*------~-----5*-----0*------0*------~------5*-----0*------0*-----||
E----------1*---------------------------1*----------------------------||

no se si esta del todo bien pero suena bien jajjajajajaja marcovalenzuela14@hotmail.com
Suggest correction
Give kudos to tab author, rate the tab!
1 2 3 4 5
comments
print report bad tab
guest
You may want to rate the tab now too:
select rating
Wanna post a correction for this tab? Suggest correction