Oops, an error
Loading. Please wait.

Na Na Na Chords

7 views 1 this week
no commentswrite comment
1 2 3 4 5
3 more votes to show rating
add to favorites
launch autoscroll
font size
0
reset
transpose
0
reset
display chords
guitar tuner
Autoscroll
slow
fast
+/-
esc
set tempo
stop
Help us to improve Ultimate-Guitar.com Take our survey!
×
Hola de nuevo!! Otra más de Sonblue, esta es la segunda. Lo de siempre,
cualquier cosa a mi mail: manu15paramo@

Intro

e |-----------------------------------------------------|
B |-----------------------------------------------------|
G |----9-7-6---6-----9-7-6---6-----9-7-6---6-----9-7-6--|
D |--7-------9-----7-------9-----7-------9-----7--------|
A |-----------------------------------------------------|
E |-----------------------------------------------------|


A   -
   Ayer no pude evitar volver de nuevo a mirar
                  B  A
Ese pedazo de cuerpo
A               B                        D
Y si me haces jugar, tranquila, que ya verás
                       B
Lo que es usar bien tu tiempo


A        B             A             B
No puedo ver, no puedo ver, no puedo verlo
A        B             A             B
No puedo ver, no puedo ver, no puedo verlo


D           A     B           A
Na na na na na, estoy cansado de mirar
D           A      B             A
Na na na na na, lo que yo quiero es jugar

¡Hey!


Intro

A                    B                      D
Otra vez vuelves a estar bailando con las demás
                      B
Y yo me acerco muy lento
A                       B                        D
Hola, ¿Qué tal? ¿Cómo estás? Vente conmigo a ese bar
                        B
Lo hice y no puedo creerlo


A        B             A            B
No puede ser, no puede ser, es otro sueño
A        B             A            B
No puede ser, no puede ser, es otro sueño


D           A     B           A
Na na na na na, estoy cansado de mirar
D           A      B             A
Na na na na na, lo que yo quiero es jugar
D           A     B           A
Na na na na na, estoy cansado de mirar
D           A      B             A
Na na na na na, lo que yo quiero es jugar


Solo:

e |----------------------------------------------------------|
B |----------------------------------------------------------|
G |--------------6-7-6----6---------------6-7-6----6---------|
D |--7-7-7---7-9-------9-----9-9-9--9-7-9-------9-----7-7-7--|
A |----------------------------------------------------------|
E |----------------------------------------------------------|

e |------------------------------------------------------|
B |------------------------------------------------------|
G |------6-7-6---6--9-9/6--9-9---9-9--9-9-7-7-6-6--------|
D |--7-9-------9----------------------------------9-9-7--|
A |------------------------------------------------------|
E |------------------------------------------------------|


Na na na na na na na, na na na na na na na
Na na na na na na na, na na na na na

A
Na na na na na na na
Bm
Na na na na na na na
D
Na na na na na na na
A
Na na na na na


D           A     B           A
Na na na na na, estoy cansado de mirar
D           A      B             A
Na na na na na, lo que yo quiero es jugar
Suggest correction
Give kudos to tab author, rate the tab!
1 2 3 4 5
comments
print report bad tab
guest
You may want to rate the tab now too:
select rating
Wanna post a correction for this tab? Suggest correction