Oops, an error
Loading. Please wait.

Dan In Real Life Tab

version 2
version 2

Whole song

6,003 views 6 this week
3 commentsread comments
1 2 3 4 5
x 7
add to favorites
launch autoscroll
font size
0
reset
how to read this tab
guitar tuner
Autoscroll
slow
fast
+/-
esc
set tempo
stop
Help us to improve Ultimate-Guitar.com Take our survey!
×
Tuning: Standard

e|---------------------------------|
B|---------------------------------|
G|-----1---1------1----1---1---1---|  X4
D|--2----2------2----2---2---2-----|
A|--------------0------------------|
E|--0------------------------------|

e|--------------------------------------|
B|-------1------------------------------|
G|-----------1--------1----1---1---1----|
D|--0h2----2-----0h2-----2---2---2------|
A|---------------0----------------------|
E|--0-----------------------------------|

e|--------------------------------------|
B|--------------------------------------|
G|-------1---1--------1----1---1---1----|
D|--0h2----2-----0h2-----2---2---2------|
A|---------------0----------------------|
E|--0-----------------------------------|

e|--------------------0-----------------|
B|-------0------------------------------|
G|-------1---1--------1----1---1---1----|
D|--0h2----2-----0h2-----2---2---2------|
A|---------------0----------------------|
E|--0-----------------------------------|

e|--------------------------------------|
B|--------------------------------------|
G|-------1---1--------1----1---1---1----|
D|--0h2----2-----0h2-----2---2---2------|
A|---------------0----------------------|
E|--0-----------------------------------|

e|----------------------------------|
B|----------------------------------|
G|-----1---1------1----1---1---1---1|
D|--2----2------2----2---2---2---2--|
A|--------------0-------------------|
E|----------------------------------|
Suggest correction
comments
print report bad tab
3 comments total.
+1 reply
thevintagesoul 10 Aug 24, 2010 06:02 PM

perfect other than the B-1 of the 2nd line should be an open B or "zero". thanks a ton.

0 reply
grrlintartan 169 May 23, 2014 02:52 PM

Very good. A beautiful song. Well done on this tab.

0 reply
carolus412 21 Oct 02, 2015 09:41 PM

perfect other than the B-1 of the 2nd line should be an open B or "zero". thanks a ton.

Agree with this guy. Well done, just that one thing doesn't seem right.

guest
You may want to rate the tab now too:
select rating
Wanna post a correction for this tab? Suggest correction