Oops, an error
Loading. Please wait.

Modern Nature Tab

version 2
version 2

Whole song

19,153 views 33 this week
3 commentsread comments
1 2 3 4 5
x 4
add to favorites
launch autoscroll
font size
0
reset
how to read this tab
guitar tuner
Autoscroll
slow
fast
+/-
esc
set tempo
stop
Help us to improve Ultimate-Guitar.com Take our survey!
×
Author
MODERN NATURE
by SONDRE LERCHE


Intro - Main riff

e--2----0------------------0-----|
B--3------3-2-----0--3--2-----0--|
G--2-----------2-----------------|
D--0-----------------------------|
A--------------------------------|
E--------------------------------|   x2



1st verse:


     D          F#m     E        A

The moment has come, to face the truth

     D      F#m     E      A

I'm wide awake and so are you

A                     E

Do you have the clue what this is? (I don't know)

A                       E

Are you everything that I missed? (Don't hope so)

A                           E

We'll just have to wait and see (Wait and see)

   F#m                     G       A

If things go right we're meant to be




2nd verse:


     D          F#m     E        A

The surface is gone to scratch it off

     D      F#m     E      A

We'll make some plans and let them go

A                     E

Do you have the slightest idea? (No I don't)

A                       E

Why the world is right when we leave (Is that so?)

A                           E

Stay a while and wait and see (Wait and see)

   F#m                     G       A

If things go right we're meant to be




Chorus:


D         F#m        E          A

Oh, what a world this life would be

D               F#m    E     A

Forget all your technicolour dreams

   B#         B

Forget modern nature

 A       D        G               B

This is how it's meant to be




Main riff:

e--2----0------------------0-----|
B--3------3-2-----0--3--2-----0--|
G--2-----------2-----------------|
D--0-----------------------------|
A--------------------------------|
E--------------------------------|   x1




3rd verse:


     D          F#m     E        A

The time is here for being straight

     D      F#m     E      A

It's not too early and never too late

A                     E

People say I should watch my pace (What do they know?)

A                       E

Think how you spend all your days (They all say so)

A                           E

They'll just have to wait and see (Wait and see)

   F#m                     G       A

If things go right they'll have to agree




Chorus:


D         F#m        E          A

Oh, what a world this life would be

D               F#m    E     A

Forget all your technicolour dreams

   B#         B

Forget modern nature

 A       D        G               B

This is how it's meant to be




Main riff:

e--2----0------------------0-----|
B--3------3-2-----0--3--2-----0--|
G--2-----------2-----------------|
D--0-----------------------------|
A--------------------------------|
E--------------------------------|   x2




Solo:

-------------------------------------------|

       D          F#m     E        A    

-----------------------------------------------|  x2

   A             E

e-------------------3-2--0---------|
B--2--2-0-2-0---------------3-2-0--|
G-------------2--0-----------------|
D----------------------------------|
A----------------------------------|
E----------------------------------|

-----------------------------------------------|   x3

   F#m         G          A

e-----2--------------3--------5-----------|
B---------2----------------------7--------|
G--3----------3 / 4------4/6---------8 \--|
D-----------------------------------------|
A-----------------------------------------|
E-----------------------------------------|

-----------------------------------------------|   x1




4th verse:


     D          F#m     E        A

Du-da-dam-duru-da-dam

     D      F#m     E      A

Da-da-dam-duru-dum-dum..

A                     E

Do you have the slightest idea? (No I don't)

A                       E

Why the world is right when we leave (Is that so?)

A                           E

Stay a while and wait and see (Wait and see)

   F#m                     G       A

If things go right we're meant to be




Chorus:


D         F#m        E          A

Oh, what a world this life would be

D               F#m    E     A

Forget all your technicolour dreams

   B#         B

Forget modern nature

 A       D        G               B

This is how it's meant to be

   B#         B

Forget modern nature

 A       D        G               B

This is how it's meant to be...


   B#         B

..........................

 A       D        G               B

................................




Outro - Main riff

e--2----0------------------0-----|
B--3------3-2-----0--3--2-----0--|
G--2-----------2-----------------|
D--0-----------------------------|
A--------------------------------|
E--------------------------------|


e--2----0------------------0-------2~--|
B--3------3-2-----0--3--2-----0----3~--|
G--2-----------2-------------------2~--|
D--0-------------------------------0~--|
A--------------------------------------|
E--------------------------------------|




tabbed by Đràƶäniáŧħ.

Add my Myspace, Facebook or MSN at,
drazz91@yahoo.com


Cheers..
Suggest correction
comments
print report bad tab
3 comments total.
0 reply
sherwopj 10 May 30, 2013 03:54 PM

think the E's sound better as Em, thanks though, sweet tune

+3 reply
gmericle 101 Sep 03, 2014 11:54 PM, edited at 11:56 pm

All E's should be Em. B# should be Bm: x24432 B should be Bdim6: x23130

0 reply
Edsters295 10 May 03, 2015 06:38 PM

Lack of accuracy. Clearly wrong. E chord definitely not correct, also the more interesting chords around the 1:30 mark are incorrect as well. That is all.

guest
You may want to rate the tab now too:
select rating
Wanna post a correction for this tab? Suggest correction