Oops, an error
Loading. Please wait.

Bigger Than Punk Rock Tab

2,976 views 1 this week
2 commentsread comments
1 2 3 4 5
1 last vote to show rating
add to favorites
launch autoscroll
font size
0
reset
how to read this tab
guitar tuner
Autoscroll
slow
fast
+/-
esc
set tempo
stop
Help us to improve Ultimate-Guitar.com Take our survey!
×
Author
Sonic Boom Six - Bigger Thank Punk Rock
Album: The Ruff Guide to Genre-Terrorism
sfc

INTRO
e------------|------------|---------------------|---------------------|
B------------|------------|---------------------|---------------------|
G------------|------------|---------------------|---------------------|
D---(bass)---|---(bass)---|---------------------|---------------------|
A------------|------------|-5555-4444-3333-2222-|-5555-4444-3333-2222-|
E------------|------------|---------------------|---------------------|


e---------------------|------------|
B---------------------|------------|
G---------------------|------------|
D---------------------|------------|
A-8888-7777-6666-5555-|-3h5--------|
E---------------------|-----44~----|



VERSE (barre-chords synctopated) (power chords w/ distortion)
e----------|----------|----------|-----|-----|-----|-----|
B----------|----------|----------|-----|-----|-----|-----|
G-----5----|----------|-----5----|-5---|-----|-----|-5---|
D-5-6-5----|-5-6-5----|-5-6-5----|-5---|-6---|-5---|-5---|
A-5-6-3----|-5-6-5----|-5-6-3----|-3---|-6---|-5---|-3---|
E-3-4------|-3-4-3----|-3-4------|-----|-4---|-3---|-----|

e-3-3-3-3-|-4-4-3-3-|-3-3-3-3-|-4-4-------|
B-4-4-4-4-|-4-4-3-3-|-4-4-4-4-|-4-4-------|
G-5-5-5-5-|-5-5-4-4-|-5-5-5-5-|-5-5-----5-|
D-5-5-5-5-|-6-6-5-5-|-5-5-5-5-|-6-6-5-6-5-|
A-3-3-3-3-|-6-6-5-5-|-3-3-3-3-|-6-6-5-6-3-|
E-x-x-x-x-|-4-4-3-3-|-x-x-x-x-|-4-4-3-4---|

e-3-3-3-3-|-4-4-3-3-|-3-3-3-3-|-4-4-------|
B-4-4-4-4-|-4-4-3-3-|-4-4-4-4-|-4-4-------|
G-5-5-5-5-|-5-5-4-4-|-5-5-5-5-|-5-5-------|
D-5-5-5-5-|-6-6-5-5-|-5-5-5-5-|-6-6-5-6---|
A-3-3-3-3-|-6-6-5-5-|-3-3-3-3-|-6-6-5-6---|
E-x-x-x-x-|-4-4-3-3-|-x-x-x-x-|-4-4-3-4---|

e-3-3-3-3-|-4-4-3-3-|-3-3-3-3-|-4-4-3----|
B-4-4-4-4-|-4-4-3-3-|-4-4-4-4-|-4-4-3----|
G-5-5-5-5-|-5-5-4-4-|-5-5-5-5-|-5-5-4----|
D-5-5-5-5-|-6-6-5-5-|-5-5-5-5-|-6-6-5----|
A-3-3-3-3-|-6-6-5-5-|-3-3-3-3-|-6-6-5----|
E-x-x-x-x-|-4-4-3-3-|-x-x-x-x-|-4-4-3----|

(non synctopated)
e-4-4-4-4-|-3-3-3-3-|-3-3-3-3-|
B-4-4-4-4-|-3-3-3-3-|-4-4-4-4-|
G-5-5-5-5-|-4-4-4-4-|-5-5-5-5-|
D-6-6-6-6-|-5-5-5-5-|-5-5-5-5-|
A-6-6-6-6-|-5-5-5-5-|-3-3-3-3-|
E-4-4-4-4-|-3-3-3-3-|-x-x-x-x-|

e---------|---------|-------|
B---------|---------|-------|
G-5-5-5-5-|---------|-------|
D-5-5-5-5-|-6-6-6-6-|-5-----|
A-3-3-3-3-|-6-6-6-6-|-5-----|
E---------|-4-4-4-4-|-3-----|


CHORUS
e---------|---------|---------|---------|
B---------|---------|---------|---------|
G-5-5-5-5-|-8-8-8-8-|---------|---------|
D-5-5-5-5-|-8-8-8-8-|-6-6-6-6-|-8-8-8-8-|
A-3-3-3-3-|-6-6-6-6-|-6-6-6-6-|-8-8-8-8-|   
E---------|---------|-4-4-4-4-|-6-6-6-6-|

e---------|---------|---------|---------|
B---------|---------|---------|---------|
G-5-5-5-5-|-8-8-8-8-|---------|---------|
D-5-5-5-5-|-8-8-8-8-|-6-6-6-6-|-8-------|
A-3-3-3-3-|-6-6-6-6-|-6-6-6-6-|-8-------|    X2
E---------|---------|-4-4-4-4-|-6-------|


INTRO

VERSE

CHORUS

INTRO

INTERLUDE (clean)
e-3~----|-4~----|-3~----|-3-3-3-3-|-4-4-4-4-|-3-3-3-3-|
B-4~----|-4~----|-3~----|-4-4-4-4-|-4-4-4-4-|-3-3-3-3-|
G-5~----|-5~----|-4~----|-5-5-5-5-|-5-5-5-5-|-4-4-4-4-|
D-5~----|-6~----|-5~----|-5-5-5-5-|-6-6-6-6-|-5-5-5-5-|
A-3~----|-6~----|-5~----|-3-3-3-3-|-6-6-6-6-|-5-5-5-5-|
E-------|-4~----|-3~----|-x-x-x-x-|-4-4-4-4-|-5-5-5-5-|

CHORUS

INTRO

END

Suggest correction
Give kudos to tab author, rate the tab!
1 2 3 4 5
comments
print report bad tab
2 comments total.
0 reply
capt_allergy 31 Jul 12, 2009 07:30 PM

in the intro at the end it should be A----3h5----
E-------44~-

other than that its agood tab

0 reply
guitarhero996 10 Oct 15, 2011 07:48 PM

can you make a bass tab?

guest
You may want to rate the tab now too:
select rating
Wanna post a correction for this tab? Suggest correction