Oops, an error
Loading. Please wait.

March Of The Stroggs bass

version 1
version 1

Whole song

Interactive

175 views 1 this week
3 commentsread comments
1 2 3 4 5
2 more votes to show rating
add to favorites
×
Save as Personal and add changes to this tab that will be seen only by you. Learn more ›
×
You can save this tab as Personal to edit and correct it or add notes. All changes will be seen only by you. Learn more »
launch autoscroll
font size
0
reset
guitar tuner
edit
Autoscroll
slow
fast
+/-
esc
set tempo
stop
Author
Difficulty
Artist: Sonic Mayhem
Song: March Of The Stroggs
Album: Quake II OST

Bass tab transcribed by Voidhead

Tuning: E A D G

00:00 - 00:33

|------------------------------------------|
|------------------------------------------|
|------------------------------------------|
|--5-6-5-3---2-3-2-0---5-6-5-3---2-3-1-1-1-|

00:34 - 01:03

|--------------------------------------------------------------------|
|--------------------------------------------------------------------|
|--------------------------------------------------------------------|
|--0-0-0-0-0-0-0---0-0-0-0-0-0-0-6---0-0-0-0-0-0-0---0-0-0-0-0-0-0-3-|

01:04 - 01:08

|--------------------------------------|
|--------------------------------------|
|--4-3-------4-3-----4-3-------4-3-----|
|------6-3-------3-------6-3-------6-3-|

01:09 - 01:53

|--------------------------------------|
|--------------------------------------|
|--------------------------------------|
|--6-5-3-0---6-5-0---6-5-3-0---6-5-3-0-|

            
            
Suggest correction
Creating personal tab
Creating personal tab
You can edit any tab online and save it as your Personal.

You can edit, replace or remove any tab part or add personal notes – all changes will be seen only by you.

Personal tabs can be accessed anytime from any device, even offline.
Learn more »
Give kudos to tab author, rate the tab!
1 2 3 4 5
comments
print report bad tab
3 comments total.
0 reply
Zaqq 589 Aug 07, 2012 11:51 AM

Good old Quake II! Thanks for that tab, cool score and cool game!

0 reply
Zaqq 589 Aug 07, 2012 01:34 PM

However, I spotted some mistakes. I think it should be:

|------------------------------------------|
|------------------------------------------|
|------------------------------------------|
|--5-6-5-3---2-3-2-0---5-6-5-3---2-3-0-0-0-|

|-----------------------------|
|-----------------------------|
|-----------------------------|
|--6-5-3-0---6-5-0---6-5-3-0--|

0 reply
Zaqq 589 Aug 07, 2012 01:42 PM

Well, I shouldn't transcribe songs at 1 AM. It is F#:

|------------------------------------------|
|------------------------------------------|
|------------------------------------------|
|--5-6-5-3---2-3-2-0---5-6-5-3---2-3-2-2-2-|

guest
You may want to rate the tab now too:
select rating
Wanna post a correction for this tab? Suggest correction