Oops, an error
Loading. Please wait.

Contradiction Tab

434 views 1 this week
no commentswrite comment
1 2 3 4 5
please rate
add to favorites
launch autoscroll
font size
0
reset
how to read this tab
guitar tuner
Tab Pro tools
  • play this tab
  • loop segment
  • change instrument
  • show fretboard
  • metronome
×
Best way to learn
"Contradiction"
Autoscroll
slow
fast
+/-
esc
set tempo
stop
Contributor
Difficulty
Tuning
novice
C G C F A D
Band: Sonic Syndicate
Album: Love and Other Disasters (2008)
Song: Contradiction
Tabbed by PTK MetalMan
Link to my cover on YouTube: 
http://www.youtube.com/watch?v=GTvIYEohokk&feature=mfu_in_order&list=UL


Intro/Chorus:
"We stand here with damaged hope..."
C--8--8--8--8--8--8--8--8--3--3--3--3--3--3--3--3--5--5--5--5--5--5--5--5---|
G--8--8--8--8--8--8--8--8--3--3--3--3--3--3--3--3--5--5--5--5--5--5--5--5---|
C---------------------------------------------------------------------------|
F---------------------------------------------------------------------------|
A---------------------------------------------------------------------------|
D---------------------------------------------------------------------------|

"But still we carry on..."
C--1--1--1--1--1--1--3--3--8--8--8--8--8--8--8--8--7--7--7--7--7--7--1--1---|
G--1--1--1--1--1--1--3--3--8--8--8--8--8--8--8--8--7--7--7--7--7--7--1--1---|
C---------------------------------------------------------------------------|
F---------------------------------------------------------------------------|
A---------------------------------------------------------------------------|
D---------------------------------------------------------------------------|

"... it cannot end like this. We still have a long way to go"
C--1--1--1--1--1---1--1--1--1--1--1--3--3--8----3----1----------------------|
G--1--1--1--1--1---1--1--1--1--1--1--3--3--8----3----1----------------------|
C---------------------------------------------------------------------------|
F---------------------------------------------------------------------------|
A---------------------------------------------------------------------------|
D---------------------------------------------------------------------------|


Verse 1:
"I wish you were someone I could only disengage..."
C--5--5--5--5--5--5--5--5--5--5--5--1--1--1--1--1--1--1--1--1--1--1--5--5---|
G--5--5--5--5--5--5--5--5--5--5--5--1--1--1--1--1--1--1--1--1--1--1--5--5---|
C---------------------------------------------------------------------------|
F---------------------------------------------------------------------------|
A---------------------------------------------------------------------------|
D---------------------------------------------------------------------------|

C--5--5--5--5--5--5--5--5--5--3--3--3--3--3--3--3--3--3--3--3--3--3--3--3---|
G--5--5--5--5--5--5--5--5--5--3--3--3--3--3--3--3--3--3--3--3--3--3--3--3---|
C---------------------------------------------------------------------------|
F---------------------------------------------------------------------------|
A---------------------------------------------------------------------------|
D---------------------------------------------------------------------------|

C--3--1--1--1----1--1--1--1--3--3-------------------------------------------|
G--3--1--1--1----1--1--1--1--3--3-------------------------------------------|
C---------------------------------------------------------------------------|
F---------------------------------------------------------------------------|
A---------------------------------------------------------------------------|
D---------------------------------------------------------------------------|


Chorus:
C--8--8--8--8--8--8--8--8--3--3--3--3--3--3--3--3--5--5--5--5--5--5--5--5---|
G--8--8--8--8--8--8--8--8--3--3--3--3--3--3--3--3--5--5--5--5--5--5--5--5---|
C---------------------------------------------------------------------------|
F---------------------------------------------------------------------------|
A---------------------------------------------------------------------------|
D---------------------------------------------------------------------------|

C--1--1--1--1--1--1--3--3--8--8--8--8--8--8--8--8--7--7--7--7--7--7---------|
G--1--1--1--1--1--1--3--3--8--8--8--8--8--8--8--8--7--7--7--7--7--7---------|
C---------------------------------------------------------------------------|
F---------------------------------------------------------------------------|
A---------------------------------------------------------------------------|
D---------------------------------------------------------------------------|


Breakdown:
"They didn't build Rome in a day..."
C--1--1--1--1--1--1--1---1--3--3--3--1--1--1--1--1--3--3--5--5--5--5--5--5--|
G--1--1--1--1--1--1--1---1--3--3--3--1--1--1--1--1--3--3--5--5--5--5--5--5--|
C---------------------------------------------------------------------------|
F---------------------------------------------------------------------------|
A---------------------------------------------------------------------------|
D---------------------------------------------------------------------------|

C--5--5--------------------------1--1--1--1--1--1--1----1--3--3--3--1--1----|
G--5--5--1--1--1--3--3--3--5--5--1--1--1--1--1--1--1----1--3--3--3--1--1----|
C--------3--3--3--5--5--5--7--7---------------------------------------------|
F---------------------------------------------------------------------------|
A---------------------------------------------------------------------------|
D---------------------------------------------------------------------------|

C--1--1--1--3--3--5--5--5--5--5--5--5--5--1---------------------------------|
G--1--1--1--3--3--5--5--5--5--5--5--5--5--1---------------------------------|
C---------------------------------------------------------------------------|
F---------------------------------------------------------------------------|
A---------------------------------------------------------------------------|
D---------------------------------------------------------------------------|


Interlude (I suggest you use wah for this part):
C---------------------------------------------------------------------------|
G--10--10--10--10----10--10--10--10----10--10----12--12--12--12----12--12---|
C--x----x---x--x-----x----x--x---x-----x---x------x---x---x---x-----x---x---|
F--10--10--10--10----10--10--10--10----10--10----12--12--12--12----12--12---|
A---------------------------------------------------------------------------|
D---------------------------------------------------------------------------|

C---------------------------------------------------------------------------|
G--13--13--13--13-----------------------------------------------------------|
C--x---x---x---x------------------------------------------------------------|
F--13--13--13--13-----------------------------------------------------------|
A---------------------------------------------------------------------------|
D---------------------------------------------------------------------------|


Chorus (2x):
C--8--8--8--8--8--8--8--8--3--3--3--3--3--3--3--3--5--5--5--5--5--5--5--5---|
G--8--8--8--8--8--8--8--8--3--3--3--3--3--3--3--3--5--5--5--5--5--5--5--5---|
C---------------------------------------------------------------------------|
F---------------------------------------------------------------------------|
A---------------------------------------------------------------------------|
D---------------------------------------------------------------------------|

C--1--1--1--1--1--1--3--3--8--8--8--8--8--8--8--8--7--7--7--7--7--7--1--1---|
G--1--1--1--1--1--1--3--3--8--8--8--8--8--8--8--8--7--7--7--7--7--7--1--1---|
C---------------------------------------------------------------------------|
F---------------------------------------------------------------------------|
A---------------------------------------------------------------------------|
D---------------------------------------------------------------------------|

(Transition into second chorus)
C--1--1--1--1--1---1--1--1--1--1--1--3--3-----------------------------------|
G--1--1--1--1--1---1--1--1--1--1--1--3--3-----------------------------------|
C---------------------------------------------------------------------------|
F---------------------------------------------------------------------------|
A---------------------------------------------------------------------------|
D---------------------------------------------------------------------------|


End:
C--8----3----1---------------------------------------------------------------|
G--8----3----1---------------------------------------------------------------|
C----------------------------------------------------------------------------|
F----------------------------------------------------------------------------|
A----------------------------------------------------------------------------|
D----------------------------------------------------------------------------|
comments
We did not receive enough feedback on this tab! Please rate:
print report bad tab
1 2 3 4 5
I want to post or [tab]
guest
You may want to rate the tab now too:
select rating
Please do not post tabs as comments. Select "correction" instead!