Oops, an error
Loading. Please wait.

Denied Bass Tab

version 1
version 1

Whole song

Interactive

4,050 views 6 this week
no commentswrite comment
1 2 3 4 5
please rate
add to favorites
launch autoscroll
font size
0
reset
guitar tuner
Autoscroll
slow
fast
+/-
esc
set tempo
stop
Help us to improve Ultimate-Guitar.com Take our survey!
×
Author
Difficulty
Tuning
novice
C G C F A D
Drop C  (C-G-C-F)

Come in at 0:03
F| |-----------------------------------------------------------------|
C|o|-----------------------------------------------------------------|
G|o|-----------------------------------------------------------------|
C| |-0-0-0-0-0-0-0-0-0-0-0-0-0-0-0-0-8-8-8-8-8-8-8-8-8-8-8-8-8-8-8-8-|
                                                                   x2
|-----------------------------------------------------------------| |
|-----------------------------------------------------------------|o|
|-----------------------------------------------------------------|o|
|-3-3-3-3-3-3-3-3-3-3-3-3-3-3-3-3-2-2-2-2-2-2-2-2-2-2-2-2-2-2-2-2-| |

|-------------------------------------------------|
|-------------------------------------------------|
|-------------------------------------------------|
|-0-0---------------------0-0---------------------|
                                                                       x2
| |-------------------------------------------------------------------| |
|o|-------------------------------------------------------------------|o|
|o|-------------------------------------------------------------------|o|
| |-0-0------0-0--0-0--0-0-0-0--0-0--0-0-------0-0--0-0--0-0-0-0--0-0-| |
                                                                     x4
| |-----------------------------------------------------------------| |
|o|-----------------------------------------------------------------|o|
|o|-1-1-1-1-1-1-1-1-1-1-1-1-1-1-1-1-5-5-5-5-5-5-5-5-3-3-3-3-3-3-3-3-|o|
| |-----------------------------------------------------------------| |

| |-----------------------------------------------------------------|
|o|-----------------------------------------------------------------|
|o|-----------------------------------------------------------------|
| |-0-0-0-0-0-0-0-0-0-0-0-0-0-0-0-0-8-8-8-8-8-8-8-8-8-8-8-8-8-8-8-8-|
                                                                   x2
|-----------------------------------------------------------------| |
|-----------------------------------------------------------------|o|
|-----------------------------------------------------------------|o|
|-3-3-3-3-3-3-3-3-3-3-3-3-3-3-3-3-2-2-2-2-2-2-2-2-2-2-2-2-2-2-2-2-| |
                                                                       x2
| |-------------------------------------------------------------------| |
|o|-------------------------------------------------------------------|o|
|o|-------------------------------------------------------------------|o|
| |-0-0------0-0--0-0--0-0-0-0--0-0--0-0-------0-0--0-0--0-0-0-0--0-0-| |
                                                                     x2
| |-----------------------------------------------------------------| |
|o|-----------------------------------------------------------------|o|
|o|-1-1-1-1-1-1-1-1-1-1-1-1-1-1-1-1-5-5-5-5-5-5-5-5-3-3-3-3-3-3-3-3-|o|
| |-----------------------------------------------------------------| |

| |-----------------------------------------------------------------|
|o|-----------------------------------------------------------------|
|o|-----------------------------------------------------------------|
| |-0-0-0-0-0-0-0-0-0-0-0-0-0-0-0-0-8-8-8-8-8-8-8-8-8-8-8-8-8-8-8-8-|
                                                                   x2
|-----------------------------------------------------------------| |
|-----------------------------------------------------------------|o|
|-----------------------------------------------------------------|o|
|-3-3-3-3-3-3-3-3-3-3-3-3-3-3-3-3-2-2-2-2-2-2-2-2-2-2-2-2-2-2-2-2-| |

| |-----------------------------------------------|
|o|-----------------------------------------------|
|o|-1-1----1-1----5-5-5-5-5-5-5-5-5-5-5-5-3-3-3-3-|
| |-----------------------------------------------|
                                             x2
|-------------------------------------------| |
|-------------------------------------------|o|
|-1-1----1-1----5-5-5--5-5-5--5-5-5-3-3-3-5-|o|
|-------------------------------------------| |
                                                                     x4
| |-----------------------------------------------------------------| |
|o|-----------------------------------------------------------------|o|
|o|-1-1-1-1-1-1-1-1-1-1-1-1-1-1-1-1-5-5-5-5-5-5-5-5-3-3-3-3-3-3-3-3-|o|
| |-----------------------------------------------------------------| |

Short Pause

| |-----------------------------------------------------------------|
|o|-----------------------------------------------------------------|
|o|-----------------------------------------------------------------|
| |-0-0-0-0-0-0-0-0-0-0-0-0-0-0-0-0-8-8-8-8-8-8-8-8-8-8-8-8-8-8-8-8-|
                                                                   x2
|-----------------------------------------------------------------| |
|-----------------------------------------------------------------|o|
|-----------------------------------------------------------------|o|
|-3-3-3-3-3-3-3-3-3-3-3-3-3-3-3-3-2-2-2-2-2-2-2-2-2-2-2-2-2-2-2-2-| |

| |---------------------------------------------------------|
|o|---------------------------------------------------------|
|o|---------------------------------------------------------|
| |-0-0----0-0----0-0----0-0----8-8----8-8----8-8----8-8----|
                                                           x2
|---------------------------------------------------------| | 
|---------------------------------------------------------|o|
|---------------------------------------------------------|o|
|-3-3----3-3----3-3----3-3----2-2----2-2----2-2----2-2----| |

|-----------------|
|-----------------|
|-----------------|
|-0~~~~~~~~~~~~~~~|

END

Thanks For VIewing!
Suggest correction
What's this?
You can suggest a correction to this tab. Community and Mods will review your correction and vote to approve or reject it.
comments
We did not receive enough feedback on this tab! Please rate:
print report bad tab
1 2 3 4 5
guest
You may want to rate the tab now too:
select rating
Please do not post tabs as comments. Select "correction" instead!