Oops, an error
Loading. Please wait.

Jailbreak Tab

version 1
version 1

Whole song

Interactive

798 views 1 this week
1 commentread comment
1 2 3 4 5
please rate
add to favorites
launch autoscroll
font size
0
reset
how to read this tab
guitar tuner
Tab Pro tools
  • play this tab
  • loop segment
  • change instrument
  • show fretboard
  • metronome
×
Best way to learn
"Jailbreak"
Autoscroll
slow
fast
+/-
esc
set tempo
stop
Contributor
Difficulty
Tuning
intermediate
C G C F A D
Sonic Syndicate - Jailbreak
tabbed by Dustin

Tuning is Drop C


/| INTRO |\

D|---------------------------------|----------------------------------|
A|---------------------------------|----------------------------------|
F|---------------------------------|----------------------------------|
C|---------------------------------|----------------------------------| x2
G|-000-000-0-0-000-000-0-0-0-0-0-0-|-000-000-0-0-000-0-0-0-0----------|
C|-000-000-0-0-000-000-0-0-0-0-0-0-|-000-000-0-0-000-0-0-0-0-33333333-|
           . .         . . . . . .           . .     . . . .


My attempt at the keyboard (sounds pretty good to me)

D|---------------------------------------------------------------------------|
A|---------------------------------------------------------------------------|
F|-777-0h7-10p9-5h7--777-0h7-10p9-7h9--555-0h5-9p7p5p0--7-10-9p5--10-10-9h10-|
C|---------------------------------------------------------------------------|
G|---------------------------------------------------------------------------|
C|---------------------------------------------------------------------------|

Rythm is:

D|-----------------------------------------|
A|-----------------------------------------|
F|-----------------------------------------|
C|-----------------------------------------|
G|-----------------------------------------|
C|-000-000--000-000---000-000--000--333333-|

/| VERSE |\

D|----------------------------|-------------------------------|
A|----------------------------|-------------------------------|
F|----------------------------|-------------------10-10-10-10-|
C|----------------------------|-------------------------------| x4
G|----------------------------|-------------------8--8--8--8--|
C|-00000---000--000-0-333-333-|-00000---000-000-0-------------|
   .....   ...  ... . ... ...   .....   ... ... .


/| PRE-CHORUS|\
                                           first time    second time,
Played 2 times                             end on this     on this:
D|---------------------------------------|--------------|------------|
A|---------------------------------------|--------------|------------|
F|---------------------------------------|--------------|------------|
C|-0------0----3------3----5------5------|-7------------|-7-7-7-7-7\-|
G|-0--0-0-0--0-3--3-3-3--3-5--5-5-5--5-5-|-7--7-7-777-7-|-7-7-7-7-7\-|
C|-0--0-0-0--0-3--3-3-3--3-5--5-5-5--5-5-|-7--7-7-777-7-|-7-7-7-7-7\-|
      . .    .    . .    .    . .    ..       . . ... .


/| CHORUS |\

D|---------------------------------------------------------------|
A|---------------------------------------------------------------|
F|---------------------------------------------------------------|
C|-0~--0~--0-0-0-8~-8-8~-8-8-8-10~-10-10~-10-10-10-3~-3-3~-3-3-3-|
G|-0~--0~--0-0-0-8~-8-8~-8-8-8-10~-10-10~-10-10-10-3~-3-3~-3-3-3-|
C|-0~--0~--0-0-0-8~-8-8~-8-8-8-10~-10-10~-10-10-10-3~-3-3~-3-3-3-|

D|---------------------------------------------------------|
A|---------------------------------------------------------|
F|---------------------------------------------------------|
C|-0~-0-0~-0-0-0-8~-8-8~-8-8-8-3~-3-3~-3-3-3-5~-5-5~-5-5-5-|
G|-0~-0-0~-0-0-0-8~-8-8~-8-8-8-3~-3-3~-3-3-3-5~-5-5~-5-5-5-|
C|-0~-0-0~-0-0-0-8~-8-8~-8-8-8-3~-3-3~-3-3-3-5~-5-5~-5-5-5-|

The octaves are pretty low in the mix but they go something like this:

D|--------------------------------------------------------------------------|
A|--------------------------------------------------------------------------|
F|-14~-14-14--14-14-14-10~-10-10--10-10-10-12~-12-12-10-10-10-5~-5-5--5-5-5-|
C|--------------------------------------------------------------------------|
G|-12~-12-12--12-12-12-8~--8--8---8--8--8--10~-10-10--8-8-8---3~-3-3--3-3-3-|
C|--------------------------------------------------------------------------|

D|--------------------------------------------------------|
A|--------------------------------------------------------|
F|-10--10-10-10-10-10-10--5--5-5-5-5-5-5--7-/-9-/-10-/-12-|
C|--------------------------------------------------------|
G|-8---8--8--8--8--8--8---3--3-3-3-3-3-3--5-/-7-/-8--/-10-|
C|--------------------------------------------------------|

______________________________________________________________

Back to this:

D|---------------------------------------------------------------------------|
A|---------------------------------------------------------------------------|
F|-777-0h7-10p9-5h7--777-0h7-10p9-7h9--555-0h5-9p7p5p0--7-10-9p5--10-10-9h10-|
C|---------------------------------------------------------------------------|
G|---------------------------------------------------------------------------|
C|---------------------------------------------------------------------------|

Rythm:

D|-----------------------------------------|
A|-----------------------------------------|
F|-----------------------------------------|
C|-----------------------------------------|
G|-----------------------------------------|
C|-000-000--000-000---000-000--000--333333-|


/| VERSE 2 |\


D|----------------------------|-------------------------------|
A|----------------------------|-------------------------------|
F|----------------------------|-------------------10-10-10-10-|
C|----------------------------|-------------------------------| x4
G|----------------------------|-------------------8--8--8--8--|
C|-00000---000--000-0-333-333-|-00000---000-000-0-------------|
   .....   ...  ... . ... ...   .....   ... ... .



/| PRE-CHORUS|\
                                           first time    second time,
Played 2 times                             end on this     on this:
D|---------------------------------------|--------------|------------|
A|---------------------------------------|--------------|------------|
F|---------------------------------------|--------------|------------|
C|-0------0----3------3----5------5------|-7------------|-7-7-7-7-7\-|
G|-0--0-0-0--0-3--3-3-3--3-5--5-5-5--5-5-|-7--7-7-777-7-|-7-7-7-7-7\-|
C|-0--0-0-0--0-3--3-3-3--3-5--5-5-5--5-5-|-7--7-7-777-7-|-7-7-7-7-7\-|
      . .    .    . .    .    . .    ..       . . ... .



/| CHORUS |\

D|---------------------------------------------------------------|
A|---------------------------------------------------------------|
F|---------------------------------------------------------------|
C|-0~--0~--0-0-0-8~-8-8~-8-8-8-10~-10-10~-10-10-10-3~-3-3~-3-3-3-|
G|-0~--0~--0-0-0-8~-8-8~-8-8-8-10~-10-10~-10-10-10-3~-3-3~-3-3-3-|
C|-0~--0~--0-0-0-8~-8-8~-8-8-8-10~-10-10~-10-10-10-3~-3-3~-3-3-3-|

D|---------------------------------------------------------|
A|---------------------------------------------------------|
F|---------------------------------------------------------|
C|-0~-0-0~-0-0-0-8~-8-8~-8-8-8-3~-3-3~-3-3-3-5~-5-5~-5-5-5-| x2
G|-0~-0-0~-0-0-0-8~-8-8~-8-8-8-3~-3-3~-3-3-3-5~-5-5~-5-5-5-|
C|-0~-0-0~-0-0-0-8~-8-8~-8-8-8-3~-3-3~-3-3-3-5~-5-5~-5-5-5-|

And the octaves:

D|--------------------------------------------------------------------------|
A|--------------------------------------------------------------------------|
F|-14~-14-14--14-14-14-10~-10-10--10-10-10-12~-12-12-10-10-10-5~-5-5--5-5-5-|
C|--------------------------------------------------------------------------|
G|-12~-12-12--12-12-12-8~--8--8---8--8--8--10~-10-10--8-8-8---3~-3-3--3-3-3-|
C|--------------------------------------------------------------------------|

D|--------------------------------------------------------|
A|--------------------------------------------------------|
F|-10--10-10-10-10-10-10--5--5-5-5-5-5-5--7-/-9-/-10-/-12-|
C|--------------------------------------------------------|
G|-8---8--8--8--8--8--8---3--3-3-3-3-3-3--5-/-7-/-8--/-10-|
C|--------------------------------------------------------|



/| BRIDGE |\

D|--------------------------|
A|--------------------------|
F|--------------------------|
C|-0~---7~---8~---10~---/12-|
G|-0~---7~---8~---10~---/12-|
C|-0~---7~---8~---10~---/12-|

Octaves behind this aswell:

D|--------------------------------------------------------------------|
A|--------------------------------------------------------------------|
F|--------------------------------------------------------------------|
C|-10~-10~-10-10-10-10-10-10~--10-10-10-10-10-10~--10-10-10/12--12-14-|
G|--------------------------------------------------------------------|
C|-8~--8~--8--8--8--8--8--8~---8--8--8--8--8--8~---8--8--8/-10--10-12-|
____________________

D|-------------------------------------------------------------------------|
A|-------------------------------------------------------------------------|
F|-------------------------------------------------------------------------|
C|-------------------------------------------------------------------------|
G|-0-0-0-0-0-0-0-0-7-7-7-7-7-7-7-7-8-8-8-8-8-8-8-8-10-10-10-10-10-10-10h12-|
C|-0-0-0-0-0-0-0-0-7-7-7-7-7-7-7-7-8-8-8-8-8-8-8-8-10-10-10-10-10-10-10h12-|
   . . . . . . . . . . . . . . . . . . . . . . . . .  .  .  .  .  .

Again, keyboard part on guitar:

D|----------------------------------------------------------|
A|----------------------------------------------------------|
F|----------------------------------------------------------|
C|-10p9p7-10p9p7-10p9--10p9p5-10p9p5-7h9--10p9---10p9---7h9-|
G|---------------------------------------------7------7-----|
C|----------------------------------------------------------|

   first time end on:               Second time:
D|------------------------|    D|--------------------|
A|------------------------|    A|--------------------|
F|-12p10p9-12-10h12-14p12-|    F|-12p10-9h10-9p7p5h7-|
C|------------------------|    C|--------------------|
G|------------------------|    G|--------------------|
C|------------------------|    C|--------------------|
______________________________________________________

D|-----------------------|-----------------|
A|-----------------------|-----------------|
F|-----------------------|-----------------|
C|-0~---8~---10~---12~---|-12-12-12-12-12\-|
G|-0~---8~---10~---12~---|-12-12-12-12-12\-|
C|-0~---8~---10~---12~---|-12-12-12-12-12\-|


/| CHORUS |\

D|---------------------------------------------------------------|
A|---------------------------------------------------------------|
F|---------------------------------------------------------------|
C|-0~--0~--0-0-0-8~-8-8~-8-8-8-10~-10-10~-10-10-10-3~-3-3~-3-3-3-|
G|-0~--0~--0-0-0-8~-8-8~-8-8-8-10~-10-10~-10-10-10-3~-3-3~-3-3-3-|
C|-0~--0~--0-0-0-8~-8-8~-8-8-8-10~-10-10~-10-10-10-3~-3-3~-3-3-3-|

D|---------------------------------------------------------|
A|---------------------------------------------------------|
F|---------------------------------------------------------|
C|-0~-0-0~-0-0-0-8~-8-8~-8-8-8-3~-3-3~-3-3-3-5~-5-5~-5-5-5-|
G|-0~-0-0~-0-0-0-8~-8-8~-8-8-8-3~-3-3~-3-3-3-5~-5-5~-5-5-5-| x2
C|-0~-0-0~-0-0-0-8~-8-8~-8-8-8-3~-3-3~-3-3-3-5~-5-5~-5-5-5-|

And the octaves:

D|--------------------------------------------------------------------------|
A|--------------------------------------------------------------------------|
F|-14~-14-14--14-14-14-10~-10-10--10-10-10-12~-12-12-10-10-10-5~-5-5--5-5-5-|
C|--------------------------------------------------------------------------|
G|-12~-12-12--12-12-12-8~--8--8---8--8--8--10~-10-10--8-8-8---3~-3-3--3-3-3-|
C|--------------------------------------------------------------------------|

D|--------------------------------------------------------|
A|--------------------------------------------------------|
F|-10--10-10-10-10-10-10--5--5-5-5-5-5-5--7-/-9-/-10-/-12-|
C|--------------------------------------------------------|
G|-8---8--8--8--8--8--8---3--3-3-3-3-3-3--5-/-7-/-8--/-10-|
C|--------------------------------------------------------|

Then start playing:

                      [x2]
D|-------------------------------------------------------------------------|
A|-------------------------------------------------------------------------|
F|-------------------------------------------------------------------------|
C|-0-0-0-0-0-0-0-0-7-7-7-7-7-7-7-7-8-8-8-8-8-8-8-8-10-10-10-10-10-10-10h12-|
G|-0-0-0-0-0-0-0-0-7-7-7-7-7-7-7-7-8-8-8-8-8-8-8-8-10-10-10-10-10-10-10h12-|
C|-0-0-0-0-0-0-0-0-7-7-7-7-7-7-7-7-8-8-8-8-8-8-8-8-10-10-10-10-10-10-10h12-|

D|-------|
A|-------|
F|-------|
C|-0~----|
G|-0~----|
C|-0~----|

.::Fade out::.

D|--------------------------------------------------------------------|
A|--------------------------------------------------------------------|
F|--------------------------------------------------------------------|
C|-10~-10~-10-10-10-10-10-10~--10-10-10-10-10-10~--10-10-10/12--12-14-|
G|--------------------------------------------------------------------|
C|-8~--8~--8--8--8--8--8--8~---8--8--8--8--8--8~---8--8--8/-10--10-12-|
comments
We did not receive enough feedback on this tab! Please rate:
print report bad tab
1 2 3 4 5
1 comment total.
0 reply
Roqua_99 wrote on March 15 2015, 03:02 am

Awesome man!!!!!

I want to post or [tab]
guest
You may want to rate the tab now too:
select rating
Please do not post tabs as comments. Select "correction" instead!