Oops, an error
Loading. Please wait.

Lament Of Innocence Bass Tab

version 1
version 1

Whole song

Interactive

916 views 1 this week
no commentswrite comment
1 2 3 4 5
please rate
add to favorites
launch autoscroll
font size
0
reset
guitar tuner
Autoscroll
slow
fast
+/-
esc
set tempo
stop
Help us to improve Ultimate-Guitar.com Take our survey!
×
Contributor
Difficulty
intermediate
Sonic Syndicate: Lament Of Innocence
Album: Eden Fire (2005)

It's my very first tab, so I'm not sure. But I think it's pretty good. Please tell me if 
are mistakes, I'll appreciate that. Enjoy it !
tabed by Basstien (gw_vs_sum2@yahoo.de)

x = mute
* = let ring

Intro:
C| ------------------| (x4)
G| ------------------|
C| ------------------|
F| 2---2---5---5-----|

Verse:
C| ---------------------------------------| (x2)
G| ---------------------------------------|
C| ---------------------------------------|
F| 9---975---3-444444444444446666666666---|

C| ----------------------------------|
G| ----------------------------------|
C| ----------------------------------|
F| 9-9-9-9-9-975-5-5-5-5-579---------|

C| -------------------------------|
G| -------------------------------|
C| -------------------------------|
F| 9-9-9-9-975-5-5-5-554----------|

Chorus:
C| ------------------------------------|
G| ------------------------------------|
C| ------------------------------------|
F| 9---9-7-9-553--9-7-9-10-5--4--------|

C| -------------------------------------|
G| -------------------------------------|
C| -------------------------------------|
F| 9---9-7-9-553--9-7-9-10-5--2---------|

2nd Intro:
C| --------------------| (x4)
G| --------------------|
C| --------------------|
F| 2-2-2---5-5-5-5-----|

2nd Verse:
C| ---------------------------------------| (x2)
G| ---------------------------------------|
C| ---------------------------------------|
F| 9---975---3-4444444444444466666666666--|

C| ----------------------------------|
G| ----------------------------------|
C| ----------------------------------|
F| 9-9-9-9-9-975-5-5-5-5-579---------|

C| --------------------------------------------|
G| --------------------------------------------|
C| --------------------------------------------|
F| 9-9-9-9-975-5-5-5-55444444444444------------|

Bridge:
C| --------------------|
G| --------------------|
C| --------------------|
F| 9---9-7-10-9-9------|

C| ---------------|
G| ---------------|
C| ---------------|
F| 999-7775-------|

C| --------------------|
G| --------------------|
C| --------------------|
F| 9---9-7-10-9-9------|

C| ---------------|
G| ---------------|
C| ---------------|
F| 999x-----555---|

C| --------------------|
G| --------------------|
C| --------------------|
F| 9---9-7-10-9-9------|

C| ---------------|
G| ---------------|
C| ---------------|
F| 999-7775-------|

C| --------------------|
G| --------------------|
C| --------------------|
F| 9---9-7-10-9-9------|

C| -----------------|
G| -----------------|
C| -----------------|
F| 999-7775---------|

Chorus:
C| ------------------------------------|
G| ------------------------------------|
C| ------------------------------------|
F| 9---9-7-9-553--9-7-9-10-5--4--------|

C| ----------------------------------------|
G| ----------------------------------------|
C| ----------------------------------------|
F| 9---9-7-9-553--9-7-9-10-5--2------------|

Outro:
C| ------------------------------------------------| (x2)
D| ------------------------------------------------|
C| ------------------------------------------------|
F| 22222222555555552222222255555555----------------|

C|--
D|--
C|--
F|2*
comments
We did not receive enough feedback on this tab! Please rate:
print report bad tab
1 2 3 4 5
I want to post or [tab]
guest
You may want to rate the tab now too:
select rating
Please do not post tabs as comments. Select "correction" instead!