Oops, an error
Loading. Please wait.

My Escape Bass Tab

version 1
version 1

Whole song

Interactive

2,167 views 1 this week
no commentswrite comment
1 2 3 4 5
3 more votes to show rating
add to favorites
launch autoscroll
font size
0
reset
guitar tuner
Autoscroll
slow
fast
+/-
esc
set tempo
stop
Help us to improve Ultimate-Guitar.com Take our survey!
×
Author
Hi everyone.. I'm not sure if its 100% right or not. cz I tabbed it by ear. I listened 
the song in youtube and I liked it. so I went to this website to look for the tab and 
find any for the bass so I decided to make one..

note: when I write a lot of "111111.." I don't mean the exact number of "1"s that I 
listen to the song and you'll get it..

Song: My escape
Band: Sonic Syndicate
Tabbed by: Sum16kwt

if you any question or anything send a message to my youtube account: "youtube.com/Sum16kwt"

intro

F|----------------------------------------------------------------|
C|----------------------------------------------------------------|
G|11111111111111111111111111111111------------------------33330000|
C|--------------------------------000000000000000000000000--------| x2

Verse 1

F|---------------------------------------------------------|
C|---------------------------------------------------------|
G|1~-----1-1~---01~---1-1~--3------------------5~---3-3~--0|
C|------------------------------0~-----0-0~---0------------| x2

Pre-chorus 1

F|-------------------------------------------------------|
C|-------------------------------------------------------|
G|1~-----1-1~--1-3~---3-3~--3-1~-----1-1~--1-3~---3-3~---|
C|-------------------------------------------------------|

Chorus 1

F|----------------------------------------------------------------|
C|----------------------------------------------------------------|
G|--------------------------------------------------------55553333|
C|33333333333333333333333333333333000000000000000000000000--------| x2

Verse 2
most of the notes in this part should be muted after playing listen to the song to get 
idea

F|-------------------------------------------------|
C|-------------------------------------------------|
G|1-1---------01-1-1--13~--------------------3-3--0|
C|-----------------------0-0---------0-0-----------| x2

Pre-chorus 2

F|---------------------------------------------------------------|
C|---------------------------------------------------------------|
G|1--1--1-1-1~--1-3--3--3-3-3~--01--1--1-1-1~--1-3--3--3-3~--3~--|
C|---------------------------------------------------------------| x2

Chorus 2

F|----------------------------------------------------------------|
C|----------------------------------------------------------------|
G|--------------------------------------------------------55553333|
C|33333333333333333333333333333333000000000000000000000000--------| x2

Bridge

F|----------------------------------------------------|
C|----------------------------------------------------|
G|1111111111113333------------333333333333333333333333|
C|----------------000000000000------------------------|

F|----------------------------------------------------|
C|----------------------------------------------------|
G|1111111111113333------------333333333333333333333333|
C|----------------12\~00000000------------------------|

F|----------------------------------------------------|
C|----------------------------------------------------|
G|------------------Play-nothing-here-----------------|
C|----------------------------------------------------|

Chorus 3

F|----------------------------------------------------------------|
C|----------------------------------------------------------------|
G|--------------------------------------------------------55553333|
C|33333333333333333333333333333333000000000000000000000000--------| x3

Outro

F|---------------------------------------------------------------|
C|---------------------------------------------------------------|
G|---------------------------------------------------------------|
C|111111111111111111111111111111113333333333333333333333333333333|

F|----------------|
C|----------------|
G|/8~-------------|
C|----------------|


Thanks,
Sum16kwt
Suggest correction
Give kudos to tab author, rate the tab!
1 2 3 4 5
comments
print report bad tab
guest
You may want to rate the tab now too:
select rating
Wanna post a correction for this tab? Suggest correction